Oops, an error
Loading. Please wait.

Sigo Llorando Por Ti tab

version 2
version 2

Whole song

Interactive

47 views 1 this week
no commentswrite comment
1 2 3 4 5
3 more votes to show rating
add to favorites
×
Save as Personal and add changes to this tab that will be seen only by you. Learn more ›
×
You can save this tab as Personal to edit and correct it or add notes. All changes will be seen only by you. Learn more »
launch autoscroll
font size
0
reset
how to read this tab
guitar tuner
edit
Autoscroll
slow
fast
+/-
esc
set tempo
stop
Afinación normal.


(INTRO)
                SOL                    RE#                  FA*
E||-------------------------------------------------------------------
B||-------------------------------------------------------------------
G||-7-7-7-5-3-2------------7-7-7-5-3-2-----------7-7-7-5-3-2----------
D||--------------5-5-5-5-5-------------1-1-1-1-1-------------3-3-3-3-3
A||-------------------------------------------------------------------
E||-------------------------------------------------------------------

            LA
--------------------------------------||
--------------------------------------||
-7-7-7-5-3-2--------------------------||
-------------4-4-4-4-4-5-5-5-7-7-7-5--||
--------------------------------------||
--------------------------------------||

SOL
Y aunque en el invierno
me suelo quedar...
SOL
me estoy derritiendo...
me empiezo a quemar...

RE#
con las uñas de los dedos
     FA*
arrancadas por los nervios
      LA#
sólo queda el recuerdo
      RE                 RE#
y me siento vacío sin ti.

RE#             LA#
Sigo llorándote
                FA*
sigo esperándote
                    SOL*    (SOLSOLFA)* RE#
sigo pensando que no tengo remedio sin ti
                LA#
sigo llorándote
                DO
sigo esperándote
                  RE
sigo llorando por ti
(RE)    (-)       SOL
sigo llorando por ti

SOL
Cumpliendo condena en esta soledad,
SOL
como una sirena que no tiene mar

RE#
con los trozos de un espejo
     FA*
esparcidos por el suelo
      LA#                    RE                RE#
sólo queda el reflejo porque sigo vacío sin ti

RE#             LA#
Sigo llorándote
                FA*
sigo esperándote
                    SOL*    (SOLSOLFA)* RE#
sigo pensando que no tengo remedio sin ti
                LA#
sigo llorándote
                DO
sigo esperándote
                  RE
sigo llorando por ti
                     (RE#)
sigo llorando por ti

RE#               LA#     FA*       SOL*   FA*
   Y aunque estoy solo ya no siento miedo
RE#          LA#       FA*        SOL*   FA*
   si me despierto me vuelvo a dormir
RE#           LA#     FA*       SOL*     FA*
   Muerto de frio me quemo por dentro
DO                  RE
  sigo llorando por ti
                    (RE#)
  sigo llorando por ti


(SOLO)

RE#          LA#           FA*             SOL*      SOL*SOL* FA* RE#
E||-------------------------------------------------------------------
B||-6-4-3-4-3~--6-4-3-4-6-3~--6-4-3-4-3--4-6-4-3-4-6--4---3----1------
G||----------------------------------------------------------------3~-
D||-------------------------------------------------------------------
A||-------------------------------------------------------------------
E||-------------------------------------------------------------------

          LA#            DO              RE
-------------------------------------------------------------||
-6-4-3-4-3~--6-4-3-4-6-3~--6-4-3-4-3--3-3-888888101010101010-||
-------------------------------------------------------------||
-------------------------------------------------------------||
-------------------------------------------------------------||
-------------------------------------------------------------||

       RE#
Con las uñas de los dedos
     FA*
arrancadas por los nervios                (todo en palm mute)
      LA#
sólo queda el recuerdo
      RE                 (RE#)
y me siento vacío sin ti


RE#             LA#
Sigo llorándote
                FA*
sigo esperándote
                    SOL*    (SOLSOLFA)* RE#
sigo pensando que no tengo remedio sin ti
                LA#
sigo llorándote
                DO
sigo esperándote
                  RE
sigo llorando por ti
                     (RE#)
sigo llorando por ti


RE#             LA#
Sigo llorándote
                FA*
sigo esperándote
                    SOL*    (SOLSOLFA)* RE#
sigo pensando que no tengo remedio sin ti
                LA#
sigo llorándote
                DO
sigo esperándote
                  RE
sigo llorando por ti
                  (SOL)
sigo llorando por ti


(FINAL)
                SOL                    RE#                  FA*
E||-------------------------------------------------------------------
B||-------------------------------------------------------------------
G||-7-7-7-5-3-2------------7-7-7-5-3-2-----------7-7-7-5-3-2----------
D||--------------5-5-5-5-5-------------1-1-1-1-1-------------3-3-3-3-3
A||-------------------------------------------------------------------
E||-------------------------------------------------------------------

            LA                     (SOL)
--------------------------------------||
--------------------------------------||
-7-7-7-5-3-2--------------------------||
-------------4-4-4-4-4-5-5-5-7-7-7-5--||
--------------------------------------||
--------------------------------------||


*Nota:
   FA*       SOL*
E||-x-||  E||-x-||
B||-x-||  B||-x-||
G||-10-|| G||-12-||
D||-10-|| D||-12-||
A||-8-||  A||-10-||
E||-x-||  E||-x-||

            
            
Suggest correction
Creating personal tab
Creating personal tab
You can edit any tab online and save it as your Personal.

You can edit, replace or remove any tab part or add personal notes – all changes will be seen only by you.

Personal tabs can be accessed anytime from any device, even offline.
Learn more »
Give kudos to tab author, rate the tab!
1 2 3 4 5
comments
print report bad tab
guest
Wanna post a correction for this tab? Suggest correction