Oops, an error
Loading. Please wait.

Sigo Llorando Por Ti tab

version 3
version 3

Whole song

Interactive

35 views 3 this week
no commentswrite comment
1 2 3 4 5
3 more votes to show rating
add to favorites
×
Save as Personal and add changes to this tab that will be seen only by you. Learn more ›
×
You can save this tab as Personal to edit and correct it or add notes. All changes will be seen only by you. Learn more »
launch autoscroll
font size
0
reset
how to read this tab
guitar tuner
edit
Autoscroll
slow
fast
+/-
esc
set tempo
stop
Ya hay varias trascripciones de esta cancion, pero no habia
ninguna tablatura completa hasta el final.


Intro

-------------------------------------------------
--3-3-3-1-----------------3-3-3-1----------------
-----------3-2---------------------3-2-----------
----------------0-0-0-0-----------------1-1-1-1--
-------------------------------------------------
-------------------------------------------------

---------------------------------------------
3-3-3-1-------------3-3-3-1------------------
--------3-2-----------------3-2---------0-2-0
------------3-3-3-3-------------4-4-4-4------
---------------------------------------------
---------------------------------------------

----------------------------------------------------------------------
--3-3-3-1----------------3-3-3-1-------------3-3-3-1------------------
----------3-2-------------------3-2-----------------3-2---------0-2-0-
---------------1-1-1-1--------------3-3-3-3-------------4-4-4-4-------
----------------------------------------------------------------------
----------------------------------------------------------------------


Primera estrofa


----------------------------------------------------
----------------------------------------------------
----------------------------------------------------
--------3-----7------8-7-5------3-----7------8-7-5--
---5----1-----5------------5----1-----5-------------
---3-----------------------3------------------------


-----------------------------------------------------------------
-----------------------------------------------------------------
-----------------------------------------------------------------
-----------8---------8---------------------10-------------10-----
---8-8-8-8-8-8-8-8-8-8---------10-10-10-10-10-10-10-10-10-10-----
---6-6-6-6-6-6-6-6-6-6----------8--8--8--8--8--8--8--8--8--8-----

-----------------------------------------------------
-----------------------------------------------------
----------3---------3------------------7---------7---
--3-3-3-3-3-3-3-3-3-3----------7-7-7-7-7-7-7-7-7-7---
--1-1-1-1-1-1-1-1-1-1----------5-5-5-5-5-5-5-5-5-5---
-----------------------------------------------------


Estribillo

---------------------------------------------------------------------------
---------------------------------------------------------------------------
-------(x2)----------(x2)------------(x2)----------------(x2)--------------
---------------------------------------------------------------------------
---8-8-8-8-8-----3-3-3-3-3-----10-10-10-10-10-10-----5-5-5-5-5----6--7--8--
---6-6-6-6-6-----1-1-1-1-1-----8--8--8--8--8--8------3-3-3-3-3----4--5--6--


---------------------------------------------------------
--------------------(x2)-------------(x2)---------(x2)---
-----(x2)------------------------------------------------
-----------------3-3-3-3-3------5-5-5-5-5-----7-7-7-7-7--
---8-8-8-8-8-----1-1-1-1-1------3-3-3-3-3-----5-5-5-5-5--
---6-6-6-6-6---------------------------------------------

Segunda estrofa

----------------------------------------------------
----------------------------------------------------
----------------------------------------------------
--------3-----7------8-7-5------3-----7------8-7-5--
---5----1-----5------------5----1-----5-------------
---3-----------------------3------------------------


-----------------------------------------------------------------
-----------------------------------------------------------------
-----------------------------------------------------------------
-----------8---------8---------------------10-------------10-----
---8-8-8-8-8-8-8-8-8-8---------10-10-10-10-10-10-10-10-10-10-----
---6-6-6-6-6-6-6-6-6-6----------8--8--8--8--8--8--8--8--8--8-----

-----------------------------------------------------
-----------------------------------------------------
----------3---------3------------------7---------7---
--3-3-3-3-3-3-3-3-3-3----------7-7-7-7-7-7-7-7-7-7---
--1-1-1-1-1-1-1-1-1-1----------5-5-5-5-5-5-5-5-5-5---
-----------------------------------------------------


Estribillo


---------------------------------------------------------------------------
---------------------------------------------------------------------------
-------(x2)----------(x2)------------(x2)----------------(x2)--------------
---------------------------------------------------------------------------
---8-8-8-8-8-----3-3-3-3-3-----10-10-10-10-10-10-----5-5-5-5-5----6--7--8--
---6-6-6-6-6-----1-1-1-1-1-----8--8--8--8--8--8------3-3-3-3-3----4--5--6--


---------------------------------------------------------
--------------------(x2)-------------(x2)---------(x2)---
-----(x2)------------------------------------------------
-----------------3-3-3-3-3------5-5-5-5-5-----7-7-7-7-7--
---8-8-8-8-8-----1-1-1-1-1------3-3-3-3-3-----5-5-5-5-5--
---6-6-6-6-6---------------------------------------------

Otro

---------------------------------------------------------------------------
---------------------------------------------------------------------------
---------------------------------------------------------------------------
---8-8-8----3-3-3----8-8-8----5--7----8-8-8----3-3-3----8-8-8----5---7-----
---6-6-6----1-1-1----6-6-6----3--5----6-6-6----1-1-1----6-6-6----3---5-----
---------------------------------------------------------------------------

----------------------------------------------
----------------------------------------------
----------------------------------------------
--8-8-8----3-3-3----8-8-8----5---7------------
--6-6-6----1-1-1----6-6-6----3---5------------
----------------------------------------------

---------------------------------------------------------------------------
---------------------------------------------------------------------------
---------------------------------------------------------------------------
---5---5-5-5-5-5----7-7-7-7-7-----10--8--7--8--7------10--8--7--8--10--7---
---3---3-3-3-3-3----5-5-5-5-5----------------------------------------------
---------------------------------------------------------------------------

------------------------------------------------------
------------------------------------------------------
------------------------------------------------------
----10--8--7--8--7--7--10--8--7--7--10--8--7----------
----------------------------------------------10--10--
------------------------------------------------------

---------------------------------------------------------------------
---------------------------------------------------------------------
---------------------------------------------------------------------
----10--8--7--8--7--------10--8--7--8--10--7-------10--8--7--8--7----
---------------------------------------------------------------------
---------------------------------------------------------------------

-----------------
-10(x6)---12(x6)-
-----------------
-----------------
-----------------
-----------------


Estribillo


-------------------------------------------------------------- |
---------------------(x2)----------(x2)-----------(x2)-------|
------(x2)---------------------------------------------------  |
-----------------3-3-3-3-3------5-5-5-5-5-----7-7-7-7-7------  |
---8-8-8-8-8-----1-1-1-1-1------3-3-3-3-3-----5-5-5-5-5------  |
---6-6-6-6-6-------------------------------------------------  |
                                                               |
                                                               |
----------------------------------------------------           |
----------------------------------------------------           |
-------(x2)----------(x2)--------------(x2)---------        |
----------------------------------------------------           | x2
---8-8-8-8-8-----3-3-3-3-3------10-10-10-10-10-10---           |
---6-6-6-6-6-----1-1-1-1-1------8--8--8--8--8--8----           |
                                                               |
                                                               |
--------------------------------                               |
--------------------------------                               |
------(x2)----------------------                              |
--------------------------------                               |
--5-5-5-5-5----5----6----7---8--                               |
--3-3-3-3-3----3----4----5---6--                               |


---------------------------------------------------------
--------------------(x2)-----------(x2)-----------(x2)---
-----(x2)------------------------------------------------
-----------------3-3-3-3-3------5-5-5-5-5-----7-7-7-7-7--
---8-8-8-8-8-----1-1-1-1-1------3-3-3-3-3-----5-5-5-5-5--
---6-6-6-6-6---------------------------------------------


Cierre

------------------------------------------------------------------------
--3-3-3-1----------------3-3-3-1-------------3-3-3-1--------------------
----------3-2-------------------3-2-----------------3-2---------0-2-0---
---------------1-1-1-1--------------3-3-3-3-------------4-4-4-4---------
------------------------------------------------------------------------
------------------------------------------------------------------------


------------------------------------------------------------------------
--3-3-3-1----------------3-3-3-1-------------3-3-3-1--------------------
----------3-2-------------------3-2-----------------3-2---------0-2-----
---------------1-1-1-1--------------3-3-3-3-------------4-4-4-4---------
----------------------------------------------------------------------5-
----------------------------------------------------------------------3-

            
            
Suggest correction
Creating personal tab
Creating personal tab
You can edit any tab online and save it as your Personal.

You can edit, replace or remove any tab part or add personal notes – all changes will be seen only by you.

Personal tabs can be accessed anytime from any device, even offline.
Learn more »
Give kudos to tab author, rate the tab!
1 2 3 4 5
comments
print report bad tab
guest
Wanna post a correction for this tab? Suggest correction