Oops, an error
Loading. Please wait.

Sin Ti tab

version 2
version 2

Whole song

Interactive

39 views 1 this week
no commentswrite comment
1 2 3 4 5
3 more votes to show rating
add to favorites
×
Save as Personal and add changes to this tab that will be seen only by you. Learn more ›
×
You can save this tab as Personal to edit and correct it or add notes. All changes will be seen only by you. Learn more »
launch autoscroll
font size
0
reset
how to read this tab
guitar tuner
edit
Autoscroll
slow
fast
+/-
esc
set tempo
stop
corrigo este tema que subi anteriormente
el dia 13 d noviembre fui a un concierto exclusivo de pignoise
en primera fila
y me fije en los acordes que ponia alvaro
asique porfavor, no la corrigais porque esta PERFECTA.
gracias^^


Acordes: DO# - LA - RE - SI - SOL (Preferentemente en quintas)


intro: (se toca con los dedos y la
distorsion al tope)

e----------------------------------------------------------------
C----------------------------------------------------------------
G----------------------------------------------------------------
D----------------------------------------------------------------
A--5-5-5-5-5-5-5-5-4-4-4-4-4-4-4-4-2-2-2-2-2-2-2-2---------------
E--------------------------------------------------3-3-3-3-3-3-3-3

``intro 2´´ (no se como llamarlo xD)
e----------------------------------------------------------------
C----------------------------------------------------------------
G----------------------------------------------------------------
D----------------------------------------------------------------
A--2-2-2-2-2-2-2-2-----------------5-5-5-5-5-5-5-5---------------
E------------------3-3-3-3-3-3-3-3-----------------5-5-5-5-5-5-5-5


Si al despegar sigo en el suelo                              (intro 1)

siempre tu vuelas en mi lugar

soy el don juan de los tropiezos, es el comienzo de mi final

y creo que muero, te espero y estas tan lejos                (intro 2)

yo me desespero y tu no estas

(LA-LA-LA)

RE                 LA                   SI
 sigo llorando y tu, que dices que te vas
                SOL              RE
se apagara la luz y nunca volverá
                    LA                 SI
yo me he quedado aqui solo quiero gritar
         SOL
nada me queda sin ti


(intro 1)


soy un iman para las penas, nada me llena si tu no estas   (intro 1)

mi corazon, que se envenena

vena por vena, hasta matar

y creo que muero, te espero y estas tan lejos              (intro 2)

yo me desespero y tu no estas

(LA-LA-LA)

RE                  LA                    SI
  sigo llorando y tu, que dices que te vas
                SOL              RE
se apagara la luz y nunca volverá
                    LA                 SI
yo me he quedado aqui solo quiero gritar
         SOL     (intro 1 en palm mute con crescendo al final)
nada me queda sin ti


SOLO

        SI   SOL   RE     LA        SI    SOL    LA
E||--------------------------------------------------------||
B||--------------------------------------------------------||
G||-----7-----7-----7----------------7-----7---------------||
D||---4---4-4---5-5---4--4-7-5-5-4-----4-4---5--5-7-5-4----||
A||--------------------------------5-----------------------||
E||--------------------------------------------------------||


RE                  LA                   SI
  sigo llorando y tu, que dices que te vas
                SOL              RE
se apagara la luz y nunca volverá
                    LA                 SI
yo me he quedado aqui solo quiero gritar
                SOL              RE
se apagara la luz y nunca volverá
                 LA                    SI
sigo llorando y tu, que dices que te vas
                SOL              RE
se apagara la luz y nunca volverá
                    LA                 SI
yo me he quedado aqui solo quiero gritar
         SOL       RE   DO#
nada me queda sin ti
SI       SOL       RE   DO#
nada me queda sin ti
SI       SOL       RE   DO#
nada me queda sin ti
SI       SOL       RE
nada me queda sin ti


---------------------------------
ACORDES:

   DO#
E||-x-||
B||-x-||
G||-6-||
D||-6-||
A||-4-||
E||-x-||

   RE
E||-x-||
B||-x-||
G||-7-||
D||-7-||
A||-5-||
E||-x-||

   LA
E||-x-||
B||-x-||
G||-x-||
D||-7-||
A||-7-||
E||-5-||

  SOL
E||-x-||
B||-x-||
G||-x-||
D||-5-||
A||-5-||
E||-3-||

   SI
E||-x-||
B||-x-||
G||-4-||
D||-4-||
A||-2-||
E||-x-||


nota: alvaro terminaba el solo asi,
pero lo que suena en el disco es lo de arriba

        SI   SOL   RE     LA        SI    SOL     LA
E||----------------------------------------------------------------||
B||----------------------------------------------------------------||
G||-----7-----7-----7----------------7-----7------141414121212-11~~||
D||---4---4-4---5-5---4--4-7-5-5-4-----4-4---5-5-------------------||
A||--------------------------------5--------------121212101010-9~~-||
E||----------------------------------------------------------------||


eso es todo ^^
cualquiera cosa x favor agregadme
Suggest correction
Creating personal tab
Creating personal tab
You can edit any tab online and save it as your Personal.

You can edit, replace or remove any tab part or add personal notes – all changes will be seen only by you.

Personal tabs can be accessed anytime from any device, even offline.
Learn more »
Give kudos to tab author, rate the tab!
1 2 3 4 5
comments
print report bad tab
guest
Wanna post a correction for this tab? Suggest correction