Oops, an error
Loading. Please wait.

Sube A Mi Cohete tab

146 views 3 this week
no commentswrite comment
1 2 3 4 5
3 more votes to show rating
add to favorites
×
Save as Personal and add changes to this tab that will be seen only by you. Learn more ›
×
You can save this tab as Personal to edit and correct it or add notes. All changes will be seen only by you. Learn more »
launch autoscroll
font size
0
reset
how to read this tab
guitar tuner
edit
Autoscroll
slow
fast
+/-
esc
set tempo
stop
Bueno, lo primero, decir que esta canción se llama 'Sube
a mi cohete', no 'Juntos podemos', no se porque la gente
se confunde xdxd
espero que os guste, pienso que esta correcta 100%.
en el overdrive de la web de  teneis la actuación de pignoise
en el mtv day donde podéis ver esta canción.
ah, la letra seguramente este mal, la he cogido de por ahí.
los acordes que se utilizan estan abajo del todo, no los olvidéis :)

INTRO:


e |-----------------------|
B |-----------------------|
G |-----------------------|
D |---6-6-6-6-6-6-6-6-----|
A |----6-6-6-6-6-6-6-6----|
E |-----------------------|


  SOL# RE#   FA    RE#       DO#     RE#
e |------------------------------------|
B |------------------------------------|
G |-----8--5-----------------------5---|
D |-6--------8--6---5--6--5--5--6-----8|
A |------------------------------------|
E |------------------------------------|

SOL#FA# SOL#     RE#  FA
   Puede que esto dure tanto
FARE#  DO#    RE#   SOL#
   como una noche lunar
SOL#FA# SOL#     RE#  FA
   No te sueltes de mi mano
FARE#   DO#    RE#    SOL#
   No nos vamos a estrellar


(SOL#)  RE#         SOL#
Por eso sube a mi cohete
   RE#          FA
y flota en el espacio
   RE#        DO#
De luces florescentes
                   RE#
Quien quiere ir despacio?
                SOL#
Y Seguir a tanta gente
  RE#           FA
Pudiendo ser corsarios
  RE#          DO#
Vivir contracorriente
             RE#
Es fácil, se puede
           SOL#     RE#       FA       RE#  DO#   RE#

       e |------------------------------------------|
       B |------------------------------------------|
       G |-13131313-12121212--10101010-8888-666666-8|
       D |------------------------------------------|
       A |-11111111-10101010--8-8-8-8--6666-444444-6|
       E |------------------------------------------|
Juntos podemoooooooooooooooooooooooooos..


SOL#FA#  SOL#     RE#     FA
   No hay porque pisar el suelo
FARE#   DO#    RE#   SOL#
   Ni dormir para soñar
SOL#FA# SOL#   RE#  FA
   No se trata de un deseo
FARE#   DO#     RE#   SOL#
   Hay mundo sin gravedad


(SOL#)  RE#         SOL#
Por eso sube a mi cohete
   RE#          FA
y flota en el espacio
   RE#        DO#
De luces florescentes
                   RE#
Quien quiere ir despacio?
                SOL#
Y Seguir a tanta gente
  RE#           FA
Pudiendo ser corsarios
  RE#          DO#
Vivir contracorriente
             RE#
Es fácil, se puede
           SOL#     RE#       FA       RE#  DO#   RE#

       e |------------------------------------------|
       B |------------------------------------------|
       G |-13131313-12121212--10101010-8888-666666-8|
       D |------------------------------------------|
       A |-11111111-10101010--8-8-8-8--6666-444444-6|
       E |------------------------------------------|
Juntos podemoooooooooooooooooooooooooos..


RE# (muteado)


e|-----------------|
B|-----------------|
G|-----------------|
D|-1515151717171717|
A|-----------------|
E|-1313131515151515|
FA
No traigas tu maleta
e|-----------------|
B|-----------------|
G|-----------------|
D|-1515151717171717|
A|-----------------|
E|-1313131515151515|
DO#
Aquí no hay caja negra
e|-----------------|
B|-----------------|
G|-----------------|
D|-1515151313131313|
A|-----------------|
E|-1313131111111111|
SOL#
Tampoco hay cinturones
e|-----------------|
B|-----------------|
G|-----------------|
D|-1515151313131313|
A|-----------------|
E|-1313131111111111|
RE#
Salidas de emergencia
e|-----------------|
B|-----------------|
G|-----------------|
D|-1515151717171717|
A|-----------------|
E|-1313131515151515|
FA
Revienta las paredes
e|-----------------|
B|-----------------|
G|-----------------|
D|-1515151717171717|
A|-----------------|
E|-1313131515151515|
DO#
Para abrir un boquete
RE# (muteado)
Por el que puedas escapar..
         SOL#
..De mi cohete..

   RE#          FA
y flota en el espacio
   RE#        DO#
De luces florescentes
                   RE#
Quien quiere ir despacio?
                SOL#
Y Seguir a tanta gente
  RE#           FA
Pudiendo ser corsarios
  RE#          DO#

Vivir contracorriente
             RE#
Es fácil, se puede

           SOL#     RE#       FA       RE#  DO#   RE#

       e |-------------------------------------------------|
       B |-------------------------------------------------|
       G |-13131313-12121212--10101010-8888-666666-88888888|
       D |-------------------------------------------------|
       A |-11111111-10101010--8-8-8-8--6666-444444-66666666|
       E |-------------------------------------------------|
                (hasta el final)
Juntos podemoooooooooooooooooooooooooos..

SOL#


SOL#
E |-X-|
B |-X-|
G |-X-|
D |-6-|
A |-6-|
E |-4-|
RE#
E |-X-|
B |-X-|
G |-X-|
D |-8-|
A |-6-|
E |-6-|
FA
E |-X-|
B |-X-|
G |-X-|
D |-10-|
A |-8-|
E |-8-|
DO#
E |-X-|
B |-X-|
G |-X-|
D |-6-|
A |-4-|
E |-4-|

            
            
Suggest correction
Creating personal tab
Creating personal tab
You can edit any tab online and save it as your Personal.

You can edit, replace or remove any tab part or add personal notes – all changes will be seen only by you.

Personal tabs can be accessed anytime from any device, even offline.
Learn more »
Give kudos to tab author, rate the tab!
1 2 3 4 5
comments
print report bad tab
guest
Wanna post a correction for this tab? Suggest correction