Oops, an error
Loading. Please wait.

Un Extranjero tab

20 views 1 this week
no commentswrite comment
1 2 3 4 5
3 more votes to show rating
add to favorites
×
Save as Personal and add changes to this tab that will be seen only by you. Learn more ›
×
You can save this tab as Personal to edit and correct it or add notes. All changes will be seen only by you. Learn more »
launch autoscroll
font size
0
reset
how to read this tab
guitar tuner
edit
Autoscroll
slow
fast
+/-
esc
set tempo
stop
  (A5-A#5)B5    G5    D5    A5
e|----------------------------------|
B|----------777----777--------------|
G|---------------------9-77/8/9-----| x2
D|----7/8/9-------------------------|
A|--------------10------------------|
E|----------------------------------|

(Verso)
B5
Ya voy sin poder de reacción
G5
  escuchando una canción
D5                         A5
  que me recuerda tus besos (tus besos)
B5
Y no cambio la satisfacción
G5
  por un nuevo corazon
D5                        A5
  que me cure por completo

 (A5-A#5)B5    G5    D5    A5
e|----------------------------------|
B|----------777----777--------------|
G|---------------------9-77/8/9-----| x2
D|----7/8/9-------------------------|
A|--------------10------------------|
E|----------------------------------|

(Verso)
B5
Jamas he llegado a controlar
G5
  esta especie de ansiedad
D5                             A5
  que me vuelve un ser perverso  (ser perverso)
B5
Con dos tragos de incredulidad
G5
  si me cuentas la verdad
D5                      A5
  te redimes por completo

(Pre-coro)
    G5     A5          B5
Porque soy un extranjero
  G5       A5      B5
y no quiero molestar
    G5     A5        B5
porque soy un pasajero
   G5                 A5
si me lleva el viento estoy

(Coro)
      B5   G5        D5        A5
Porque estoy indefenso ante tus dulces besos
B5   G5        D5        A5
y no no me quiero despertar
    B5   G5       D5       A5
Porque soy ese tio que te hecha de menos
B5    G5       D5        A5
y no no me quiero despertar

Esta es la parte dentro del coro
e|----------------------------------|
B|--777-----777----777----777-------|
G|----------------------------------|
D|----------------------------------|
A|------10------10-----10-----10----|
E|----------------------------------|

(Verso) Esta parte es el bajo
B5
Ya voy sin poder de reacción
G5
  escuchando una canción
D5                         A5
  que me recuerda tus besos (tus besos)
Aqui se toca esta parte con la guitarra
B5
D|-9999999999999999-|
Y no cambio la satisfacción
G5
B|-8888888888888888-|
  por un nuevo corazon
D5                    A5
G|-7777777777777777-| D|-7777777777777777-|
  que me cure por completo

(Pre-coro)
    G5     A5          B5
Porque soy un extranjero
  G5       A5      B5
y no quiero molestar
    G5     A5        B5
porque soy un pasajero
   G5                 A5
si me lleva el viento estoy

(Coro)
      B5   G5        D5        A5
Porque estoy indefenso ante tus dulces besos
B5   G5        D5        A5
y no no me quiero despertar
    B5   G5       D5       A5
Porque soy ese tio que te hecha de menos
B5    G5       D5        A5
y no no me quiero despertar
      B5   G5        D5        A5
Porque estoy indefenso ante tus dulces besos
B5   G5        D5        A5
y no no me quiero despertar
    B5   G5       D5       A5
Porque soy ese tio que te hecha de menos
B5    G5       D5        A5
y no no me quiero despertar
     G5    A5         B5
Porque soy un extranjero

Esta es la parte dentro del coro
e|----------------------------------|
B|--777-----777----777----777-------|
G|----------------------------------|
D|----------------------------------|
A|------10------10-----10-----10----|
E|----------------------------------|

Acordes:

   B5 G5 D5 A5 A#5
G|--------7--------|
D|--9--5--7--7--8--|
A|--9--5--5--7--8--|
E|--7--3-----5--6--|
Suggest correction
Creating personal tab
Creating personal tab
You can edit any tab online and save it as your Personal.

You can edit, replace or remove any tab part or add personal notes – all changes will be seen only by you.

Personal tabs can be accessed anytime from any device, even offline.
Learn more »
Give kudos to tab author, rate the tab!
1 2 3 4 5
comments
print report bad tab
guest
Wanna post a correction for this tab? Suggest correction