Oops, an error
Loading. Please wait.

Ropes Length tab

by Pile
712 views 15 this week
2 commentsread comments
1 2 3 4 5
x 3
add to favorites
×
Save as Personal and add changes to this tab that will be seen only by you. Learn more ›
×
You can save this tab as Personal to edit and correct it or add notes. All changes will be seen only by you. Learn more »
launch autoscroll
font size
0
reset
how to read this tab
guitar tuner
edit
Autoscroll
slow
fast
+/-
esc
set tempo
stop
About this tab version
Tabbed looking at his live performances. Was this info helpful? Yes No
C standard tuning (what a madman!)

[Part 1]
e|------------0---------------0-------------0---------------0-----|
B|-----0--------------0------------0--------------0---------------|
G|-------0-10------------0-10----------0-10------------0-10-------|
D|----------------------------------------------------------------|
A|---------------------------------------------10-----------------|
E|--0-------------10-------------8--------------------------------|

[Part 2]
e|------------------------------------------------------|
B|------------------------------------------------------|
G|---7-h9-7--------------------0--------------0---------|
D|-----------10-7---7--------7-----------0--------------|
A|---8~------------8--10---------7----------------------|
E|------------------------8~-----------5----3-----------|

[Part 3] 
(experiment adding some open strings to the chords, etc)
e|---------------------------------------------------|
B|---------------------------------------------------|
G|-----------0---------------------------------------|
D|---------------------------------------------------|
A|---------8~-8~-12~-12~-7~-7~-10~-10~--5~---5~------|
E|--5~5~5~-6~-6~-10~-10~-5~-5~-8~--8~---3~---3~------|

[Part 4]
e|-1---8---0----3----------|
B|-1---8---0----3----------|
G|-2---9---1----4----------|
D|-3---10--2----5----------|
A|-3---10--2----5----------|
E|-1---8---0----3----------|

e|--------0-------------|
B|----------------------|
G|------6---------------|
D|----6-----------------|
A|--7-------------------|
E|----------------------|

[Part 5]
e|-------------------------------------------------|
B|-------------------------------------------------|
G|---2p0----------9-------5------------------------|
D|------h2--------------------------------5--------|
A|--3~-----3~---10~-10~-7~--7~-5~-5~---5~---5~-----|
E|--1~-----1~---8~--8~--5~--5~-3~-3~---3~---3~-----|

[Part 6] 
(the pretty part) keep the bass notes going
e|-12-10--------------------8-----------------|
B|-------13----10-8--8---10---10--1-3---------|
G|-----------------9------------------2-------|
D|-10----10-----------------------------------|
A|------------------------8----8--------------|
E|-------------8------------------3-3-3-------|

e|-12-10--------------------8----------------------|
B|-------13----10-8--8---10----10--8/5/3---3---3---|
G|-----------------9-------------------------------|
D|-10----10----------------------------------------|
A|------------------------8----8-------------------|
E|-------------8-------------------------3---3-----|

e|-12-10-15-12----12-10p8-------------8/10-----------------------------------------|
B|-------------------------10-----10--------13p10h13-----13-13-13------------------|
G|-------------------------------------------------------10-10-10-9----------------|
D|-10----10-----------------------------------------------0--0--0------------------|
A|------------------------------8-----8/10-----------------------------10-10-10----|
E|-----------8--8-------8----------------------------------------------8--8--8-----|


************************************

| h  Hammer-on
| ~  Vibrato
| p  Pull-off
| /  Slide up

************************************

            
            
Suggest correction
Creating personal tab
Creating personal tab
You can edit any tab online and save it as your Personal.

You can edit, replace or remove any tab part or add personal notes – all changes will be seen only by you.

Personal tabs can be accessed anytime from any device, even offline.
Learn more »
Give kudos to tab author, rate the tab!
1 2 3 4 5
comments
print report bad tab
2 comments total.
+2 reply
anniboli 238 May 18, 2017 01:12 PM

Hey sick tab. It helped a lot but on the first little intro riff, instead of 7th fret on the g string, its 10th.

0 reply
mamick9 196 Sep 02, 2017 02:44 PM

Literally perfect, great job man

guest
You may want to rate the tab now too:
select rating
Wanna post a correction for this tab? Suggest correction