Oops, an error
Loading. Please wait.

The Jones tab

by Pile
115 views 9 this week
no commentswrite comment
1 2 3 4 5
3 more votes to show rating
add to favorites
×
Save as Personal and add changes to this tab that will be seen only by you. Learn more ›
×
You can save this tab as Personal to edit and correct it or add notes. All changes will be seen only by you. Learn more »
launch autoscroll
font size
0
reset
how to read this tab
guitar tuner
edit
Autoscroll
slow
fast
+/-
esc
set tempo
stop
About this tab version
Pile is a two guitar, one bass band. This is a simplified version of their song "The Jones" for one guitar, it doesn't have the lead guitar and is probably unwieldy in its execution as I'm not used to writing tabs. Also the song has a weird structure and I don't know how to define all the parts as verse, chorus, etc. Was this info helpful? Yes No
C |-------------------------------------------------|
G |-------------------------------------------------|
D#|-------11----------------------0-----------0-----|
A#|--------------------------12------12--11------11-|
F |---12------12-----------10--10--10---9---9---9---|
C |-10--10--10--------------------------------------|
    [^^^^^^^^^^]play 10x                [^^^^^^^^^]play 4x

               "Try to keep up by running in place"            

C |----------------------------------------------------|
G |----------------------------------------------------|
D#|-------11----------11-------------0-----------0-----|
A#|-----------------------------12------12--11------11-|
F |---12------12--12------12--10--10--10---9---9---9---|
C |-10--10--10--10--10--10-----------------------------|

    "Tried to keep cool but all the blood went in my face..."

C |---------------------------6------------------------|
G |---------------------------6------------------------|
D#|---------------------------7------------8-----------|
A#|-------9-------------------8--------8-------8-------|
F |---9-------9-----------8-------8--6---6---6---------|
C |-7---7---7-----------6---6---6----------------------|
    [^^^^^^^^^]play 3X               [^^^^^^^^^]play 4x

    "now im cold"                    "Now I seek naked warmth

C |----------------------------------------------------|
G |----------------------------------8-----------------|
D#|----------------------------------------------------|
A#|-------5-------------8--------8-------8-------------|
F |---5-------5/8---8-------8--6---6---6---------------|
C |-3---3---3-----6---6---6----------------------------|
                               [^^^^^^^^^]play 4x

C |----------------------------------------------------|
G |-------7---7------11--11-------5---5-------14--14---|
D#|----------------------------------------------------|
A#|---7-----7----11----11-----5-----5-----14----14-----|
F |-5---5---5---9---9---9---3---3---3---12--12--12-----|
C |----------------------------------------------------|

    "Just spread it out more"

C |-----------------------------------------------------------------------------|
G |--------------------12-12-12-12-12-12---------------------11-11-11-11-11-11--|
D#|-11-11-11-11-11-11---x--x--x--x--x--x--10-10-10-10-10-10---x--x--x--x--x--x--|
A#|--x--x--x--x--x--x--12-12-12-12-12-12---x--x--x--x--x--x--11-11-11-11-11-11--|play 4x
F |-12-12-12-12-12-12--10-10-10-10-10-10--11-11-11-11-11-11---9--9--9--9--9--9--|
C |-10-10-10-10-10-10----------------------9--9--9--9--9--9---------------------|

    "OOOoooOOooOOooo"

C |----------------------------------------------------|
G |----------------------------------------------------|
D#|--11---------------------------/-9--/-7-------------|
A#|--11---------------------------/-9--/-7-------------|
F |-9-----------------------------/7---/5--------------|
C |----------------------------------------------------|
    [^^]repeat for awhile, then^      [^^]repeat for awhile

C |----------------------------------|
G |-7--8--------11--12--7--14--------|
D#|-7--8--7--8--11--12--7--14--------|
A#|-7--8--8--9--11--12--7--14--------|
F |-5--6--8--9--9---10--5--12--------|
C |-------6--7-----------------------|
    [^^^^^^^^^^^^^^^^^^^^^^^]play 5x

    (unintelligible lyrics , if you're pile and you're playing live, adlib about your penis)

C |----------------------------------------------------|
G |----------------------------------------------------|
D#|--7-7-7-------------------0-3-3-4-4-4-4-------------|
A#|-7-7-7-------------------0-0-3-4-4-4-4--------------|
F |----------------------------------------------------|
C |----------------------------------------------------|
    [^^^^]repeat awhile           [^^^^^^]repeat awhile

C |-------7---7----------|
G |-------7---7----------|
D#|-5-7-7---7------------|
A#|-5-7-7---7------------|
F |----------------------|
C |----------------------|
    [^^^^^^^^^]play 4x

C |---------------------------------------------------------------|
G |--------------------------------------------15--13--11---9-----|
D#|-----12-----11-------------------12----------------------------|
A#|-12--12--9--11---------------12--12--9-------------------------|
F |-12--10--9--9----------------12--10--9-------------9---7-------|
C |-10------7-------------------10------7----13--12---------------|
    [^^^^^^^^^^^]play 3x then

    "I bought all these books..."

C |-----|
G |-----|
D#|-----|
A#|-12--|
F |-12--|play awhile
C |-10--|

C |---------------------------------------------------------------|
G |--------------------------------------------15--13--11---9-----|
D#|-----12-----11-------------------12----------------------------|
A#|-12--12--9--11---------------12--12--9-------------------------|
F |-12--10--9--9----------------12--10--9-------------9---7-------|
C |-10------7-------------------10------7----13--12---------------|
    [^^^^^^^^^^^]play 3x then

    "Take what you want and then just burn the rest"

C |-------------------------------------------------|
G |-------------------------------------------------|
D#|----8--0-----------------8-----------------------|
A#|-------x-----------------------------------------|
F |-6/8-8-9--------------6/8-8----------------------|
C |-------------------------------------------------|
    [^^^^^]play 4x then

C |-------------------------------------------------|
G |-------------------------------------------------|
D#|-------11----------------------0-----------0-----|
A#|--------------------------12------12--11------11-|
F |---12------12-----------10--10--10---9---9---9---|
C |-10--10--10--------------------------------------|
    [^^^^^^^^^^]play 10x                [^^^^^^^^^]play 4x

    "Tried to keep it up by running in place"

C |-------------------------------------------------|
G |-------------------------------------------------|
D#|-------11----------------------0-----------0-----|
A#|--------------------------12------12--11------11-|
F |---12------12-----------10--10--10---9---9---9---|
C |-10--10--10--------------------------------------|
    [^^^^^^^^^^]play 2x              

    "Tried to keep my cool but all that blood went in my face"

C |-----------------------------------------------------------------------------|
G |--------------------12-12-12-12-12-12---------------------11-11-11-11-11-11--|
D#|-11-11-11-11-11-11---x--x--x--x--x--x--10-10-10-10-10-10---x--x--x--x--x--x--|
A#|--x--x--x--x--x--x--12-12-12-12-12-12---x--x--x--x--x--x--11-11-11-11-11-11--|play 4x
F |-12-12-12-12-12-12--10-10-10-10-10-10--11-11-11-11-11-11---9--9--9--9--9--9--|
C |-10-10-10-10-10-10----------------------9--9--9--9--9--9---------------------|

    "OOOoooOOooOOooo"

************************************

| /  Slide up
| x  Dead note

************************************
Suggest correction
Creating personal tab
Creating personal tab
You can edit any tab online and save it as your Personal.

You can edit, replace or remove any tab part or add personal notes – all changes will be seen only by you.

Personal tabs can be accessed anytime from any device, even offline.
Learn more »
Give kudos to tab author, rate the tab!
1 2 3 4 5
comments
print report bad tab
guest
You may want to rate the tab now too:
select rating
Wanna post a correction for this tab? Suggest correction