Oops, an error
Loading. Please wait.

Awake Tab

version 1
version 1

Whole song

2,342 views 3 this week
6 commentsread comments
1 2 3 4 5
2 more votes to show rating
add to favorites
launch autoscroll
font size
0
reset
how to read this tab
guitar tuner
×
Best way to learn
"Awake"
Autoscroll
slow
fast
+/-
esc
set tempo
stop
Author
Difficulty
  follow
intermediate
ok this album is great and i couldn't find any tabs for this song... i figured this out 
day after the album came out...

d|----------------------------------------------------|
a|----------------------------------------------------|
f|----------------------------------------------------|
c|--------------0-2/3---------------------------------|
g|------0-2/3-----------0-2/3---0-3322----------------|
c|----0-------0-------0-------0-----------------------|

thats all i know so far you play that thru the verse while another guitar riff is 
couldn't/haven't figured that out yet)


enjoi
Suggest correction
Give kudos to tab author, rate the tab!
1 2 3 4 5
comments
print report bad tab
6 comments total. Showing first comments.
0 reply
rokrdude 100 Mar 01, 2007 02:29 PM

i realized a while back that this prt is played on bass

0 reply
AnberlinFan 10 Oct 11, 2007 03:36 PM

Yeah....

0 reply
AnberlinFan 10 Oct 11, 2007 03:40 PM

It's (On the A and the D on a bass)
D------------2--5-----------------
A--0-2-3---0-------0-2-3--0-2-3232

It pretty much repeats.

guest
You may want to rate the tab now too:
select rating
Wanna post a correction for this tab? Suggest correction