Oops, an error
Loading. Please wait.

Behind Closed Doors Tab

938 views 1 this week
no commentswrite comment
1 2 3 4 5
please rate
add to favorites
launch autoscroll
font size
0
reset
how to read this tab
guitar tuner
Tab Pro tools
  • play this tab
  • loop segment
  • change instrument
  • show fretboard
  • metronome
×
Best way to learn
"Behind Closed Doors"
Autoscroll
slow
fast
+/-
esc
set tempo
stop
Contributor
Band- Pillar
Song- Behind Closed Doors

Intro this x1         Listen to song for x's
--------------------|-----------------------|
--------------------|-----------------------|
--------------------|-----------------------|
--------------------|-----------------------|
3-5-3-5-3333-3h5-55-|3h5-5-3-5~-3333-3h5-55-|
0-0-0-0-3333-3h5-55-|0-0-0-0-0--3333-3h5-55-|
Verse  this x2          this x2 then 1
---------------------|-------------------------|
-1-------------------|-2-----------------------|
---------------------|-------------------------|
---------------------|-------------------------|
3-55-3-5-3333-3h5-55-|3-55-3-5-3-5-3-33-3h5-55-|
0-00-0-0-3333-3h5-55-|0-00-0-0-0-0-3-33-3h5-55-|
PM====   ===========  ==========   ===========
Fill listen to song
----------------------|
----------------------|
----------------------|
----------------------|
3-5p3-3-5p3-----------|
3-5p3-3-5p3-----------|
PM    =
Verse again then 1/4=one-fourth bend
---------------------------------|
---------------------------------|
---------------------------------|
---------------------------------|
/5-5-3---------------------------|
-------5-3b1/4-------------------|
Chorus                                       1st end    2nd end
------------------------------------------|----------|-----------|
------------------------------------------|----------|-----------|
------------------------------------------|----------|-----------|
------------------------------------------|----------|-----------|
/8----3-3h5-0-3h5------0--(5)0000---------|-00000000-|00-3/5-3---|
/8-10-3-3h5-0-----0-(5)0(5)--0000(9-5-9-5)|-00000000-|00---------|
PM                     =     ====           ======    ==
Then
-----------------------------------------|
-----------------------------------------|
-----------------------------------------|
-----------------------------------------|
/8----3-3h5-0-3h5-------00--00-----------|
/8-10-3-3h5-0-----0-(5)-00--00--16-------|
Then Intro
verse
Chorus
Bridge
-------------------------------------------------------------------|
-------------------------------------------------------------------|
-------------------------------------------------------------------|
-------------------------------------------------------------------|
3-5-555-5555-555-666-6666-666-888-8888-888-101010-10101010-101010--|
----000-0000-000-000-0000-000-000-0000-000--0-0-0--0-0-0-0--0-0-0--|
PM===============================================================
Then listen for x's      Then
-----------------------|----------------------|
-----------------------|----------------------|
765---765---765~-765---|---------------5~-----|
xxx---xxx---xxx--xxx---|---------------x------|
543-0-543-0-543~-543-0-|000-0-553-0-00-3~-----|
----0-----0----------0-|000-0-000-0-00--------|
Listen to song for order and etc.
comments
We did not receive enough feedback on this tab! Please rate:
print report bad tab
1 2 3 4 5
I want to post or [tab]
guest
You may want to rate the tab now too:
select rating
Please do not post tabs as comments. Select "correction" instead!