Oops, an error
Loading. Please wait.

Bring Me Down Tab

version 1
version 1

Whole song

Interactive

4,533 views 12 this week
1 commentread comment
1 2 3 4 5
please rate
add to favorites
launch autoscroll
font size
0
reset
how to read this tab
guitar tuner
Tab Pro tools
  • play this tab
  • loop segment
  • change instrument
  • show fretboard
  • metronome
×
Best way to learn
"Bring Me Down"
Autoscroll
slow
fast
+/-
esc
set tempo
stop
Contributor
Difficulty
Tuning
intermediate
C G C F A D
*sigh* I was tabbing this one out for myself and, well, i had a little trouble with the 
so i came to see if there was a better chorus than i had made, and i find out that all 
tabs were a lot different from what i'd been playing... but none of them sounded right
to me to begin with >.<... anyway here's my version, if you've got suggestions, comments, 
lemme know =P.


Tuning: Drop C (C G C F A d)... remember, thats **DROP** C, don't tune it up and yell at 
for your bad tuning =P.

Yeah i wasn't too sure how to put out the timing for this one, so listen to the song and 
should get it... i've got the basics here.

----------------------
|        key         |
|                    |
| ... = palm mute    |
| *** = 16th notes?  |
| #h# = hammer on    |
|  ~  = let ring out | The ? is because they're faster than usual but idk if
---------------------- they're actually 16th notes or not... like i said,
                       just listen to the song and you'll get it.

--------
|INTRO:|
--------

d|-------------------------------------------------------------------|
A|-------------------------------------------------------------------|
F|------------------------5-5----------------3--------3--------------|
C|-3-3-3-3--3-3-3-3--3-3--3-3-6-6--5-5--5-5--3--6-5-6-3-6-5-3--------|
G|-3-3-3-3--3-3-3-3--3-3--3-3-3-3--3-3--3-3--3--3-3-3-3-3-3-6--------|
C|-3-3-3-3--3-3-3-3--3-3--3-3-3-3--3-3--3-3--3--3-3-3-3-3-3-3--------|

d|-------------------------------------------------------------------|
A|-------------------------------------------------------------------|
F|------------------------5-5----------------3--------3--------------|
C|-3-3--3-3-3-3--3-3--3-3-6-6--5-5--5-5--3--6-5-6-3-6-5-3------------| (x2)
G|-3-3--3-3-3-3--3-3--3-3-3-3--3-3--3-3--3--3-3-3-3-3-3-6------------|
C|-3-3--3-3-3-3--3-3--3-3-3-3--3-3--3-3--3--3-3-3-3-3-3-3------------|

--------
|Verse:|
--------

d|-------------------------------------------------------------------|
A|--------------------------------------------------------------6-5--|
F|-6--5--8-8-8-8-8--8----6--6-5----6--5--8-8-8-8-8--8----6--6-5------|
C|--------------------6---------6---------------------6--------------| (x2)
G|-------------------------------------------------------------------|
C|-------------------------------------------------------------------|
         *********                       *********

d|-------------------------------------------------------------------|
A|-------------------------------------------------------------------|
F|-6--5--8-8-8-8-8--8----6--6-5----6--5--8-8-8-8-8--8--6-------------|
C|--------------------6---------6------------------------------------|
G|-------------------------------------------------------------------|
C|-------------------------------------------------------------------|
         *********                       *********

---------
|Chorus:|
---------

d|-------------------------------------------------------------------|
A|-------------------------------------------------------------------|
F|--------------------5-5----------------3--------3------------------|
C|-1h3--3-3-1h3--3-3--3-3-6-6--5-5--5-5--3--6-5-6---6-5-3------------|
G|-1h3--3-3-1h3--3-3--3-3-3-3--3-3--3-3--3--3-3-3---3-3-6------------|
C|-1h3--3-3-1h3--3-3--3-3-3-3--3-3--3-3--3--3-3-3---3-3-3------------|

d|-------------------------------------------------------------------|
A|-------------------------------------------------------------------|
F|--------------------5-5--------------------5-5-5-5-5-5-------------|
C|-1h3--3-3-1h3--3-3--3-3-6-6--5-5--5-5--6-6-3-3-3-3-3-3-------------|
G|-1h3--3-3-1h3--3-3--3-3-3-3--3-3--3-3--3-3-3-3-3-3-3-3-------------|
C|-1h3--3-3-1h3--3-3--3-3-3-3--3-3--3-3--3-3-3-3-3-3-3-3-------------|

d|-------------------------------------------------------------------|
A|-------------------------------------------------------------------|
F|--------------------5-5----------------3--------3------------------|
C|-1h3--3-3-1h3--3-3--3-3-6-6--5-5--5-5--3--6-5-6---6-5-3------------|
G|-1h3--3-3-1h3--3-3--3-3-3-3--3-3--3-3--3--3-3-3---3-3-6------------|
C|-1h3--3-3-1h3--3-3--3-3-3-3--3-3--3-3--3--3-3-3---3-3-3------------|

d|-------------------------------------------------------------------|
A|-------------------------------------------------------------------|
F|--------------------5-5--------------------5-5-5-5-5-5-------------|
C|-1h3--3-3-1h3--3-3--3-3-6-6--5-5--5-5--6-6-3-3-3-3-3-3-3~~~~~~~~---|
G|-1h3--3-3-1h3--3-3--3-3-3-3--3-3--3-3--3-3-3-3-3-3-3-3-3~~~~~~~~---|
C|-1h3--3-3-1h3--3-3--3-3-3-3--3-3--3-3--3-3-3-3-3-3-3-3-3~~~~~~~~---|

---------
|Bridge:|
---------

d|-------------------------------------------------------------------|
A|-------------------------------------------------------------------|
F|-------------------------------------------------------------------|
C|-------------------------------------------------------------------|
G|-------------------------------------------------------------------|
C|-1h3--3-3-1h3--1h3-3-1--3-1h3--3-3-1h3--1h3-3-1--------------------|
   .....................................

d|-------------------------|    |------------------------------------|
A|-------------------------|    |------------------------------------|
F|-------------------------|    |------------------------------------|
C|-1h3--3-3-1h3--1h3-3-3---|(x5)|-1h3--3-3-1h3-1h3-3-3-3-3-3-3-------|
G|-1h3--3-3-1h3--1h3-3-3---|    |-1h3--3-3-1h3-1h3-3-3-3-3-3-3-------|
C|-1h3--3-3-1h3--1h3-3-3---|    |-1h3--3-3-1h3-1h3-3-3-3-3-3-3-------|
        ...          ...               ...

d|-------------------------------------------------------------------|
A|-------------------------------------------------------------------|
F|-------8-------8----------------------8-------8---------6-5--------|
C|-6--5-6---6-5-6---6-5-8-8-8-8-6-5-6-5---6-5-6---6-5-6-5------------|
G|-------------------------------------------------------------------|
C|-------------------------------------------------------------------|

d|-------------------------|    |------------------------------------|
A|-------------------------|    |------------------------------------|
F|-------------------------|    |------------------------------------|
C|-1h3--3-3-1h3--1h3-3-3---|(x2)|-1h3--3-3-1h3-1h3-3-3-3-3-3-3-------|
G|-1h3--3-3-1h3--1h3-3-3---|    |-1h3--3-3-1h3-1h3-3-3-3-3-3-3-------|
C|-1h3--3-3-1h3--1h3-3-3---|    |-1h3--3-3-1h3-1h3-3-3-3-3-3-3-------|
        ...          ...               ...

d|-------------------------------------------------------------------|
A|-------------------------------------------------------------------|
F|-------8-------8----------------------8-------8---------6-5--------|
C|-6--5-6---6-5-6---6-5-8-8-8-8-6-5-6-5---6-5-6---6-5-6-5------------|
G|-------------------------------------------------------------------|
C|-------------------------------------------------------------------|

d|-------------------------|    |------------------------------------|
A|-------------------------|    |------------------------------------|
F|-------------------------|    |------------------------------------|
C|-1h3--3-3-1h3--1h3-3-3---|(x2)|-1h3--3-3-1h3-1h3-3-3-3-3-3-3-------|
G|-1h3--3-3-1h3--1h3-3-3---|    |-1h3--3-3-1h3-1h3-3-3-3-3-3-3-------|
C|-1h3--3-3-1h3--1h3-3-3---|    |-1h3--3-3-1h3-1h3-3-3-3-3-3-3-------|
        ...          ...               ...

d|-------------------------------------------------------------------|
A|-------------------------------------------------------------------|
F|-------8-------8----------------------8-------8-----5-5-5-5--------|
C|-6--5-6---6-5-6---6-5-8-8-8-8-6-5-6-5---6-5-6---6-5----------------|
G|-------------------------------------------------------------------|
C|-------------------------------------------------------------------|

d|-------------------------------------------------------------------|
A|-------------------------------------------------------------------|
F|-------8-------8---------------------------------------------------|
C|-6--5-6---6-5-6---6-5-8-8-8-8--------------------------------------|
G|-------------------------------------------------------------------|
C|-------------------------------------------------------------------|

--------
|Outro:|
--------

d|--------------------|    |------------------------------------|
A|--------------------|    |------------------------------------|
F|--------------------|    |------------------------------------|
C|-1h3--3-3-1h3-------|(x6)|-1h3--3-3-1h3-1h3-------------------|
G|-1h3--3-3-1h3-------|    |-1h3--3-3-1h3-1h3-------------------|
C|-1h3--3-3-1h3-------|    |-1h3--3-3-1h3-1h3-------------------|
        ...                       ...


----------------
|Song Structure|
----------------

Intro
Verse
Chorus
Verse
Chorus
Bridge
Chorus
Outro

Wow i never realized until i put it down on here how long that bridge is... anyway, I 
you liked it, rate it and comment please =).
comments
We did not receive enough feedback on this tab! Please rate:
print report bad tab
1 2 3 4 5
1 comment total.
0 reply
SomeGuitarPlayr wrote on March 13 2006, 02:52 pm

dang i checked every tab except for ver 4... ver 4 is a whole lot better than this one =P (in my opinion rofl). anyway, this one sounds decent, but nowhere near what it accually is. Take the bridge from this one (cause i think the bridge is wrong in ver 4) and take the rest from ver 4 =P.

I want to post or [tab]
guest
You may want to rate the tab now too:
select rating
Please do not post tabs as comments. Select "correction" instead!