Oops, an error
Loading. Please wait.

Bring Me Down Tab

version 2
version 2

Whole song

Interactive

1,752 views 1 this week
3 commentsread comments
1 2 3 4 5
worth learning
x 2
add to favorites
launch autoscroll
font size
0
reset
how to read this tab
guitar tuner
Tab Pro tools
  • play this tab
  • loop segment
  • change instrument
  • show fretboard
  • metronome
Autoscroll
slow
fast
+/-
esc
set tempo
stop
Contributor
Difficulty
Tuning
intermediate
D A D G B E
-----------------------------------------------------------------------------
                          Bring Me Down - Pillar
-----------------------------------------------------------------------------

Tabbed By: Max Andersen
E-Mail: metalhead_7075@yahoo.ca
Tunning: Drop-D

riff 1                                       ending 1
e|---|-------------------------------------|------------------|
B|---|-------------------------------------|------------------|
G|---|--------------------5-5--------------|-3----------------|
D|-3-|-3-3x-3-3-0-3x-3-3x-5-5-6x-1-1x-1-1x-|-3----------------|
A|-3-|-3-3x-3-3-0-3x-3-3x-3-3-6x-1-1x-1-1x-|-1----------------|
E|-3-|-3-3x-3-3-0-3x-3-3x-----6x-1-1x-1-1x-|---0-0-0-8-0-6~~--|

ending 2
e|-----|
B|-----|
G|-8---|
D|-6---|
A|-4---|
E|-----|

ending 3
e|------------------|
B|------------------|
G|-3--6-6-6-6-6-6\5-|
D|-3--6-6-6-6-6-4\3-|  (endings 3 & 4 are for the chorus)
A|-1--4-4-4-4-4-----|
E|------------------|

ending 4
e|--------------|
B|--------------|
G|-3-6-6---10---|
D|-3-6-4---10---|
A|-1-4-4---8----|
E|--------------|

riff 2                                              ending 1
e|-------------------------------------------------|----------------|
B|-------------------------------------------------|----------------|
G|-------------------------------------------------|----------------|
D|---------------------------8-8-8-8-------8-8-----|------6x-6------|
A|-8-8-8-11-11-8-8-10-10-8-8---------666-6-----6-6-|-4-4------4-4-4-|
E|-------------------------------------------------|----------------|
   . . .       . .       . .         ... .           . .        . .
 
ending 2
e|----------------|
B|----------------|
G|------------6-5-|
D|-----6x-6-8-----|
A|-4-4------------|
E|----------------|
   . .        

riff 3
e|-----------------------------------------------------|
B|-----------------------------------------------------|
G|--------------------------------------------------6x-|
D|---------------------------8-8-8-8-------8-8------6x-|
A|-8-8-8-11-11-8-8-10-10-8-8---------666-6-----6-6--4x-|
E|-----------------------------------------------------|
   . . .       . .       . .         ... .     . .   


riff 4
e|----------------------------|
B|----------------------------|
G|----------------------------|
D|----------------------------|
A|----------------------------|
E|-3--1-3--3-3-1-3--1-3--3-1--|
   .  . .  . . . .  . .  . .

riff 5
e|-----------------------------|
B|-----------------------------|
G|-----------------------------|
D|-----------------------------|
A|-----------------------------|
E|-3--1-3--3-3-1-3--1-3--3-1~~-|
   .  . .  . . . 

riff 6
e|----------------------------|
B|----------------------------|
G|----------------------------|
D|-3--1-3x-3-3-1-3x-1-3x-3-1--|(on the first time play chord without 
A|-3--1-3x-3-3-1-3x-1-3x-3-1--| palm mute where it says "(.)")
E|-3--1-3x-3-3-1-3x-1-3x-3-1--|
     (.)            .             

riff 7
e|-----------------------------|
B|-----------------------------|
G|---------------------------8-|
D|-3--1-3x-3-3-1-3--1-3--3---6-|
A|-3--1-3x-3-3-1-3--1-3--3---4-|
E|-3--1-3x-3-3-1-3--1-3--3-----|
      .                    
 
riff 8                                                     ending 1
e|--------------------------------------------------------|-----------|
B|--------------------------------------------------------|-----------|
G|-------6--------6-------6-------------6-------6-------6-|-5h6p5~~~--|
D|-6-5-6---6-5-6----6-5-6---6/8-8~~-5-6---6-5-6---6-5-6---|-----------|
A|--------------------------------------------------------|-----------|
E|--------------------------------------------------------|-----------|

ending 2
e|----------------------------------------|
B|----------------------------------------|
G|------------6-------6-------6-----------|
D|-6/10~~-5-6---6-5-6---6-5-6---6/8-8-8x--|
A|----------------------------------------|
E|----------------------------------------|


| /  Slide up
| \  Slide down
| <> Harmonics
| x  Mute Note
| .  Palm mute
| b  Bend note to specified number
| r  Release note to original position
| ~  Vibrato

=============================================================================

comments
We did not receive enough feedback on this tab! Please rate:
print report bad tab
1 2 3 4 5
3 comments total.
0 reply
the_hunter89 wrote on February 17 2006, 09:03 pm

i believe that its actually playd in drop C tuning....so drop D but all down another note

0 reply
SomeGuitarPlayr wrote on March 12 2006, 06:48 pm

it IS in drop C tuning =P

0 reply
hepzibahbaptist wrote on May 5 2006, 05:04 pm

nice tab
btw i love the way drop C tuning feels
it makes things so much easier and more hard rock

I want to post or [tab]
guest
You may want to rate the tab now too:
select rating
Please do not post tabs as comments. Select "correction" instead!