Oops, an error
Loading. Please wait.

Echelon tab

version 3
version 3

Whole song

by Pillar
46 views 1 this week
no commentswrite comment
1 2 3 4 5
2 more votes to show rating
add to favorites
×
Save as Personal and add changes to this tab that will be seen only by you. Learn more ›
×
You can save this tab as Personal to edit and correct it or add notes. All changes will be seen only by you. Learn more »
launch autoscroll
font size
0
reset
how to read this tab
guitar tuner
edit
Autoscroll
slow
fast
+/-
esc
set tempo
stop
  Song: Echelon
Artist: Pillar
 Album: Fireproof

Tuning: Drop D


[Intro\Verse] x5

  Guitar 1 with delay and reverb
e|---------------------------------------------------------------------------|
B|---------------------------------------------------------------------------|
G|---------------------------------------------------------------------------|
D|-9-9-----9-9-----9-9-----9-9-----12-12-----12-12-----12-12-----12-12-------|
A|-----9-9-----9-9-----9-9-----9-9-------9-9-------9-9-------9-9-------9-9---|
D|---------------------------------------------------------------------------|
 |                                                                           |
 |  Guitar 2 with reverb                                                     |
e|---------------------------------------------------------------------------|
B|---------------------------------------------------------------------------|
G|---------------------------------------------------------------------------|
D|------------------------(12)------------------------------------(12)-------|
A|--------------------(12)----(12)----------------------------(12)----(12)---|
D|---------------------------------------------------------------------------|


e|---------------------------------------------------------------------------|
B|---------------------------------------------------------------------------|
G|---------------------------------------------------------------------------|
D|-5-5-----5-5-----5-5-----5-5-7-7-9-9-------9-9-------9-9-------9-9---------|
A|-----7-7-----7-7-----7-7-------------10-10-----10-10-----10-10-----10-10---|
D|---------------------------------------------------------------------------|
 |                                                                           |
 |                                                                           |
e|---------------------------------------------------------------------------|
B|---------------------------------------------------------------------------|
G|---------------------------------------------------------(12)--------------|
D|-------------------------(12)--------------------------------(12)----------|
A|---------------------(12)----(12)------------------------------------------|
D|---------------------------------------------------------------------------|


[Chorus] x2

   Guitar 1 with distortion
e|---------------------------------------------------------------------------|
B|---------------------------------------------------------------------------|
G|---------------------------------------------------------------------------|
D|-12~~-11~-11~-11~-12~--7~-7~--7~~-7~--0-0-2-2------------------------------|
A|--9~~--9~--9~--9~--9~--7~-5~--5~~-5~--0-0-2-2------------------------------|
D|--9~~--9~--9~--9~--9~--7~-5~--5~~-5~--0-0-2-2------------------------------|
 
 
Play Intro\Verse x3 only Guitar 1 on the first time.

Play Chorus x2

[Solo]

 Guitar 1 with distortion reverb and delay
e|---------------------------------------------------------------------------|
B|---------------------------------------------------------------------------|
G|------------------------------------------------------------7-6brb---------|
D|-----------------------------------------------------7h9~-7--------7/9-----|
A|----------------------------------------------/5-7h9-----------------------|
D|-/9~~~~-9h11h12~-11p9h11-9p7h9~~-7h9p7\4~-2~~------------------------------|

e|---------------------------------------------------------------------------|
B|-------------------7h8p7---7-----------------------------------------------|
G|-----------7h9/11~-------9---9p7---7-7h9p7---7------7---7/9~--7---7--------|
D|-----9-7h9-----------------------9---------9---9--9---9---------9---9~~----|
A|-7h9-----------------------------------------------------------------------|
D|---------------------------------------------------------------------------|

[Breakdown]

This part isn't 100% correct but its something like this
 Repeat this 2 or 3 times
 Guitar 2 with delay
e|---------------------------------------------------------------------------|
B|-(7)---------(12)----------------------------------------------------------|
G|-----(7)-------------------------------------------------------------------|
D|---------(7)---------------------------------------------------------------|
A|---------------------------------------------------------------------------|
D|---------------------------------------------------------------------------|

Play Chorus

[Outro]

Play Intro\Verse only guitar 2 on the first time

 Extra Guitar Plays
e|-(7)-(7)-(7)------------------------(12)-(12)-(12)-------------------------|
B|------------------------(7)-(7)-(7)--------------------(12)----------------|
G|------------(7)-(7)-(7)----------------------------(7)---------------------|
D|---------------------------------------------------------------------------|
A|---------------------------------------------------------------------------|
D|---------------------------------------------------------------------------|

 Another extra play this bend severaltimes
e|---------------------------------------------------------------------------|
B|---------------------------------------------------------------------------|
G|-6brbrbr-------------------------------------------------------------------|
D|---------------------------------------------------------------------------|
A|---------------------------------------------------------------------------|
D|---------------------------------------------------------------------------|

Well that's it


************************************

|(n) Natural Harmonic
| h   Hammer-on
| p   Pull-off
| r   Release
| b   Bend
| br  Bend release
| /   Slide up
| \   Slide down
| ~   Vibrato

************************************

            
            
Suggest correction
Creating personal tab
Creating personal tab
You can edit any tab online and save it as your Personal.

You can edit, replace or remove any tab part or add personal notes – all changes will be seen only by you.

Personal tabs can be accessed anytime from any device, even offline.
Learn more »
Give kudos to tab author, rate the tab!
1 2 3 4 5
comments
print report bad tab
guest
You may want to rate the tab now too:
select rating
Wanna post a correction for this tab? Suggest correction