Oops, an error
Loading. Please wait.

Epidemic Tab

750 views 1 this week
no commentswrite comment
1 2 3 4 5
please rate
add to favorites
launch autoscroll
font size
0
reset
how to read this tab
guitar tuner
Autoscroll
slow
fast
+/-
esc
set tempo
stop
Help us to improve Ultimate-Guitar.com Take our survey!
×
Author
Difficulty
advanced
Lot's of alternate picking
and palm muting
for that major crunchy sound.  Tab should be pretty
accurate with some
very slight interpretation on the bridge due to two
mixed guitars.
Enjoy!

Intro (palm muted) - @:0 sec
e---------------------------------------------------------------------|
B---------------------------------------------------------------------|
G---------------------------------------------------------------------|
D---------------------------------------------------------------------|
A--55-5------55-5------55-5------55-5---------------------------------|
D----------------------00-0------00-0-----12\0------------------------|


Verse (palm muted) - @:6 sec
e---------------------------------------------------------------------|
B---------------------------------------------------------------------|
G---------------------------------------------------------------------|
D--00-0---------4-4-------00-0---------4-4----------------------------|
A--00-0---5-3-3-----3-3---00-0---5-3-3-----3-3------------------------|
D--00-0-------------------00-0----------------------------------------|


e---------------------------------------------------------------------|
B---------------------------------------------------------------------|
G---------------------------------------------------------------------|
D--00-0---------4-4-------00-0---------4-4----------------------------|
A--00-0---5-3-3-----3-3---00-0---5-3-3-----3-3------------------------|
D--00-0-------------------00-0----------------------------------------|


@:13 sec
e---------------------------------------------------------------------|
B---------------------------------------------------------------------|
G--------------5------------------------------------------------------|
D--5-/-6-/-7---5----3-/-4-/-5----7-3----------------------------------|
A--5-/-6-/-7---3----3-/-4-/-5----7-3----------------------------------|
D--5-/-6-/-7--------3-/-4-/-5----7-3----------------------------------|


(A) Less palm muting (Repeat 2x)
e---------------------------------------------------------------------|
B---------------------------------------------------------------------|
G---------------------------------------------------------------------|
D--00-0---------4-4-------00-0---------4-4----------------------------|
A--00-0---5-3-3-----3-3---00-0---5-3-3-----3-3------------------------|
D--00-0-------------------00-0----------------------------------------|


e---------------------------------------------------------------------|
B---------------------------------------------------------------------|
G---------------------------------------------------------------------|
D--00-0---------4-4-------00-0---------4-4----------------------------|
A--00-0---5-3-3-----3-3---00-0---5-3-3-----3-3------------------------|
D--00-0-------------------00-0----------------------------------------|


e---------------------------------------------------------------------|
B---------------------------------------------------------------------|
G--------------5------------------------------------------------------|
D--5-/-6-/-7---5----3-/-4-/-5----7-3----------------------------------|
A--5-/-6-/-7---3----3-/-4-/-5----7-3----------------------------------|
D--5-/-6-/-7--------3-/-4-/-5----7-3----------------------------------|
Back to (A)

(B) Chorus @:37 sec (Repeat 2x)
e---------------------------------------------------------------------|
B---------------------------------------------------------------------|
G--3-------5----------------------------------------------------------|
D--3---5---5---3--3-5---0-0--------4-4------4-4-----------------------|
A--1---5---3---3--3-5---0-0--3-3-3-----3-3-------3-3------------------|
D------5-------3--3-5---0-0-------------------------------------------|


e---------------------------------------------------------------------|
B---------------------------------------------------------------------|
G---------------------------------------------------------------------|
D--0-0--------4-4------4-4--------------------------------------------|
A--0-0--3-3-3-----3-3-------3\1---------------------------------------|
D--0-0----------------------------------------------------------------|
Back to (B)

Verse (palm muted) - @:55 sec
e---------------------------------------------------------------------|
B---------------------------------------------------------------------|
G---------------------------------------------------------------------|
D-----------------4-4-----------------------4-4-----------------------|
A-5-5---5---5-3-3-----3-3---5-5---5---5-3-3-----3-3-------------------|
D---------------------------------------------------------------------|


e---------------------------------------------------------------------|
B---------------------------------------------------------------------|
G---------------------------------------------------------------------|
D-----------------4-4-----------------------4-4-----------------------|
A-5-5---5---5-3-3-----3-3---5-5---5---5-3-3-----3-3-------------------|
D---------------------------------------------------------------------|


e---------------------------------------------------------------------|
B---------------------------------------------------------------------|
G--------------5------------------------------------------------------|
D--5-/-6-/-7---5----3-/-4-/-5----7-3----------------------------------|
A--5-/-6-/-7---3----3-/-4-/-5----7-3----------------------------------|
D--5-/-6-/-7--------3-/-4-/-5----7-3----------------------------------|


(C) Repeat 2x
e---------------------------------------------------------------------|
B---------------------------------------------------------------------|
G---------------------------------------------------------------------|
D--00-0---------4-4-------00-0---------4-4----------------------------|
A--00-0---5-3-3-----3-3---00-0---5-3-3-----3-3------------------------|
D--00-0-------------------00-0----------------------------------------|


e---------------------------------------------------------------------|
B---------------------------------------------------------------------|
G---------------------------------------------------------------------|
D--00-0---------4-4-------00-0---------4-4----------------------------|
A--00-0---5-3-3-----3-3---00-0---5-3-3-----3-3------------------------|
D--00-0-------------------00-0----------------------------------------|


e---------------------------------------------------------------------|
B---------------------------------------------------------------------|
G--------------5------------------------------------------------------|
D--5-/-6-/-7---5----3-/-4-/-5----7-3----------------------------------|
A--5-/-6-/-7---3----3-/-4-/-5----7-3----------------------------------|
D--5-/-6-/-7--------3-/-4-/-5----7-3----------------------------------|
Back to (C)


Chorus @1:26 sec
e---------------------------------------------------------------------|
B---------------------------------------------------------------------|
G--3-------5----------------------------------------------------------|
D--3---5---5---3--3-5---0-0--------4-4------4-4-----------------------|
A--1---5---3---3--3-5---0-0--3-3-3-----3-3-------3-3------------------|
D------5-------3--3-5---0-0-------------------------------------------|


e---------------------------------------------------------------------|
B---------------------------------------------------------------------|
G---------------------------------------------------------------------|
D--0-0--------4-4------4-4--------------------------------------------|
A--0-0--3-3-3-----3-3-------3\1---------------------------------------|
D--0-0----------------------------------------------------------------|


e---------------------------------------------------------------------|
B---------------------------------------------------------------------|
G--3-------5----------------------------------------------------------|
D--3---5---5---3--3-5---0-0--------4-4------4-4-----------------------|
A--1---5---3---3--3-5---0-0--3-3-3-----3-3-------3-3------------------|
D------5-------3--3-5---0-0-------------------------------------------|

e---------------------------------------------------------------------|
B---------------------------------------------------------------------|
G---------------------------------------------------------------------|
D--0-0--------4-4------4-4--------------------------------------------|
A--0-0--3-3-3-----3-3-------3/5---------------------------------------|
D--0-0----------------------------------------------------------------|


Bridge @1:44 (Two guitars mixed together)
e---------------------------------------------------------------------|
B---------------------------------------------------------------------|
G--------5------------5------------5------------5---------------------|
D-----7--7---------7--7---------5--5---------7--7---------------------|
A--5------------5------------5------------5---------------------------|
D---------------------------------------------------------------------|


e---------------------------------------------------------------------|
B-------------------6-------------5b6b5-------------------------------|
G--------5------5-7---7-5-7-------------7------------5----------------|
D-----7--7----7---------------------------7-------7--7----------------|
A--5-------------------------------------------5----------------------|
D---------------------------------------------------------------------|


e-------------------------------------8-8-----------------------------|
B-------------------6---x-x--6/8-----------10--8b9b8------------------|
G--------5------5-7---7-------------------------------9b10b9----------|
D-----7--7----7-------------------------------------------------------|
A--5------------------------------------------------------------------|
D---------------------------------------------------------------------|

Palm Muted @2:08
e---------------------------------------------------------------------|
B---------------------------------------------------------------------|
G---------------------------------------------------------------------|
D--5---5---5---5---5---5---5---5--------------------------------------|
A--5---5---5---5---5---5---5---5--------------------------------------|
D--5---5---5---5---5---5---5---5--------------------------------------|


e---------------------------------------------------------------------|
B---------------------------------------------------------------------|
G-7-7-7-7-7-7-7-7-7-7-7-7-7-7-7-7-/-9-9-9-9-9-9-9-9-9-9-9-9-9-9-9-9\--|
D-x-x-x-x-x-x-x-x-x-x-x-x-x-x-x-x-/-x-x-x-x-x-x-x-x-x-x-x-x-x-x-x-x\--|
A-5-5-5-5-5-5-5-5-5-5-5-5-5-5-5-5-/-7-7-7-7-7-7-7-7-7-7-7-7-7-7-7-7\--|
D-0-0-0-0-0-0-0-0-0-0-0-0-0-0-0-0-------------------------------------|


e---------------------------------------------------------------------|
B---------------------------------------------------------------------|
G-7-7-7-7-7-7-7-7-7-7-7-7-7-7-7-7-/-7-7-7-7-7-7-7-7-7-7-7-7-----------|
D-x-x-x-x-x-x-x-x-x-x-x-x-x-x-x-x-/-x-x-x-x-x-x-x-x-x-x-x-x-5\3-------|
A-3-3-3-3-3-3-3-3-3-3-3-3-3-3-3-3-/-5-5-5-5-5-5-5-5-5-5-5-5-5\3-------|
D-----------------------------------------------------------5\3-------|


e---------------------------------------------------------------------|
B---------------------------------------------------------------------|
G-7-7-7-7-7-7-7-7-7-7-7-7-7-7-7-7-/-9-9-9-9-9-9-9-9-9-9-9-9-9-9-9-9\--|
D-x-x-x-x-x-x-x-x-x-x-x-x-x-x-x-x-/-x-x-x-x-x-x-x-x-x-x-x-x-x-x-x-x\--|
A-5-5-5-5-5-5-5-5-5-5-5-5-5-5-5-5-/-7-7-7-7-7-7-7-7-7-7-7-7-7-7-7-7\--|
D-0-0-0-0-0-0-0-0-0-0-0-0-0-0-0-0-------------------------------------|


e---------------------------------------------------------------------|
B---------------------------------------------------------------------|
G-7-7-7-7-7-7-7-7-7-7-7-7-7-7-7-7-/-7-7-7-7-7-7-7-7-7-7-7-7-7-7-7-7---|
D-x-x-x-x-x-x-x-x-x-x-x-x-x-x-x-x-/-x-x-x-x-x-x-x-x-x-x-x-x-x-x-x-x---|
A-3-3-3-3-3-3-3-3-3-3-3-3-3-3-3-3-/-5-5-5-5-5-5-5-5-5-5-5-5-5-5-5-5---|
D---------------------------------------------------------------------|

Palm Muted @2:29
e---------------------------------------------------------------------|
B---------------------------------------------------------------------|
G---------------------------------------------------------------------|
D----------------4-4--------------------------------------------------|
A--5-5-5---5-3-3-----3-3---5-5-5---5-3-3------------------------------|
D-----------------------------------------7\0-------------------------|


(D) Chorus (Repeat 4x)
e---------------------------------------------------------------------|
B---------------------------------------------------------------------|
G--3-------5----------------------------------------------------------|
D--3---5---5---3--3-5---0-0--------4-4------4-4-----------------------|
A--1---5---3---3--3-5---0-0--3-3-3-----3-3-------3-3------------------|
D------5-------3--3-5---0-0-------------------------------------------|


e--------------------------|-----|-----|------------------------------|
B--------------------------|-----|-----|------------------------------|
G--------------------------|-----|-----|------------------------------|
D--0-0--------4-4------4-4-|-----|-----|------------------------------|
A--0-0--3-3-3-----3-3------|-3\1-|-3-3-|------------------------------|
D--0-0---------------------|-----|-----|------------------------------|
Return to (D)               First Last
                            3x    1X


e---------------------------------------------------------------------|
B---------------------------------------------------------------------|
G---------------------------------------------------------------------|
D--0-0--------4-4------4-4--------------------------------------------|
A--0-0--3-3-3-----3-3-------3-3---------------------------------------|
D--0-0----------------------------------------------------------------|


e---------------------------------------------------------------------|
B---------------------------------------------------------------------|
G---------------------------------------------------------------------|
D--0-0--------4-4------4----------------------------------------------|
A--0-0--3-3-3-----3-3-------------------------------------------------|
D--0-0----------------------------------------------------------------|
Suggest correction
Give kudos to tab author, rate the tab!
1 2 3 4 5
comments
print report bad tab
guest
You may want to rate the tab now too:
select rating
Please do not post tabs as comments. Select "correction" instead!