Oops, an error
Loading. Please wait.

Everything Bass Tab

version 1
version 1

Whole song

Interactive

1,330 views 1 this week
no commentswrite comment
1 2 3 4 5
3 more votes to show rating
add to favorites
launch autoscroll
font size
0
reset
guitar tuner
Autoscroll
slow
fast
+/-
esc
set tempo
stop
Help us to improve Ultimate-Guitar.com Take our survey!
×
Author
Difficulty
Tuning
intermediate
C G C F A D
this is my first tab so there could be mistakes. if you find any then just email me 
monkeychunky3662@aol.com
and by the way at the chorus, pillar ad libs bass riffs in between the main chords and i 
tab those so you'll have to figure that part on your own.

Intro
|------------------------------------------------------------------|
|------------------------------------------------------------------|
|---3/5-----------3-------3/5-----------3-------3/5-----------3----|
|------0--3/5-3-0---0--------0--3/5-3-0---0--0-----0--3/5-3-0---0--|

|-----------------------------|
|-----------------------------|
|---3/5-----------3---33---3--|
|------0--3/5-3-0---0----0----|

The verse is the same as the intro.

Chorus
|-------------------------------------------------------------------------|
|-------------------------------------------------------------------------|
|---000000000-------------------------------------------------------------|
|-------------5-3-5-0-6666666666666666-0-5555555555555555-000----000-1-2--|

|----------------------------------------------------------------------|
|--------------------------------------------------------55555555555555|
|---000000000----------------------------------------------------------|
|-------------5-3-5-0-6666666666666666-0-5555555555555555--------------|

Verse 2 also the same as the intro.

{Chorus}

{Bridge} There is a vocal only section up until "Everything we see"
|-------------------------------------------------|
|----------------5555555555555555-----------------|
|---------------------------------0000000000000000|
|5555555555555555---------------------------------|

|--------------------------------------------------------|
|--------------------------------------------------------|
|--------------------------------------------------------|
|-7777777777777777-5555555555555555-0000-2222-3333-2222--|

|------------------------------------------------------------------|
|--------------------------------------------------5555555555555555|
|-0000000000000000-------------------------------------------------|
|-----------------7777777777777777-5555555555555555----------------|

Outro
|------------------------------------------------------------------|
|------------------------------------------------------------------|
|---3/5-----------3-------3/5-----------3----3--3/5-----------3----|
|------0--3/5-3-0---0--------0--3/5-3-0---0--------0--3/5-3-0---0--|

|------------------------------------------------------------------|
|------------------------------------------------------------------|
|---3/5-----------3-------3/5-----------3---3---3/5-----------3----|
|------0--3/5-3-0---0--------0--3/5-3-0---0-------0--3/5-3-0----0--|
Suggest correction
Give kudos to tab author, rate the tab!
1 2 3 4 5
comments
print report bad tab
guest
You may want to rate the tab now too:
select rating
Wanna post a correction for this tab? Suggest correction