Oops, an error
Loading. Please wait.

Everything Tab

version 1
version 1

Whole song

Interactive

3,842 views 1 this week
3 commentsread comments
1 2 3 4 5
x 4
add to favorites
launch autoscroll
font size
0
reset
how to read this tab
guitar tuner
Autoscroll
slow
fast
+/-
esc
set tempo
stop
Help us to improve Ultimate-Guitar.com Take our survey!
×
Author
Difficulty
Tuning
intermediate
C G C F A D
Everything by Pillar
Drop C tuning

Intro


-------------------------------------------------------|
-------------------------------------------------------|
-------------------------------------------------------|
-//----------------------------------------------------|
-//--5------------3b-----------5------------3b---------|
-//----0--5--3-0-----0-------0---0--5--3--0----0--0----|


--------------------------------------------------------|
--------------------------------------------------------|
--------------------------------------------------------|
--------------------------------------------------------|
-----5------------3b-----------5------------3--3-3------|
-------0--5--3-0-----0-------0---0--5--3--0-------------|


Verse

--------------------------------------------------------------|
------------------------------------------8b------------------|
---7~~~-----5~~~-----7~~~~--------------------------7~~~------|
--------------------------------------------------------------|
--------------------------------------------------------------|
--------------------------------------------------------------|


--------------------------------------------------------------|
------------------------8--10--8--6---------------------------|
----5~~~------7~~~--------------------7~~~------5~~~-----7~~~-|
--------------------------------------------------------------|
--------------------------------------------------------------|
--------------------------------------------------------------|

Chorus (up and down strumming pattern)

--------------------------------------------------------------|
--------------------------------------------------------------|
--------------------------------------------------------------|
--10-------10-------8-----------------------------------------|
--8--------7--------5----------------8--8-------5--3--0-------|
--8--------7--------5---------0--0--------0--0----------------|


--------------------------------------------------------------|
--------------------------------------------------------------|
--------------------------------------------------------------|
--10-------10-------8---8---8---8-----------------------------|
--8--------7--------5---5---5---5-----------------------------|
--8--------7--------5---5---5---5-----------------------------|

Intro

Verse

Chorus

Bridge (clean)
(old out each strum)
--------------------------------------------------------------|
--------------------------------------------------------------|
--------------------------------------------------------------|
--10~----10~------8~------7~-----10~----10~----8--8--8--8-----|
--8~------7~------5~------0~-----8~------7~----5--5--5--5-----|
--8~------7~------5~------0~-----8~------7~----5--5--5--5-----|

Chorus

Intro
Suggest correction
comments
print report bad tab
3 comments total.
0 reply
PVmelonhead91 20 Mar 15, 2007 06:35 PM

this should be


-------------------------------------------------------|
-------------------------------------------------------|
-------------------------------------------------------|
-//----------------------------------------------------|
-//--5------------3b-----------5------------3b---------|
-//----0--5--3-0-----0-------0---0--5--3--0----0--0----|



Dont play this three just slide to it - (3)
Intro


-------------------------------------------------------|
-------------------------------------------------------|
-------------------------------------------------------|
-//----------------------------------------------------|
-//--5/(3)------------3b-----------5------------3b-----|
-//----0--5--3-0-----0-------0---0--5--3--0----0--0----|

0 reply
PVmelonhead91 20 Mar 15, 2007 06:37 PM

sorry my mistake it should be 3/(5)

0 reply
Rogue Guitar 10 Oct 08, 2007 09:22 PM

nah the way hes tabed it sounds better leave him alone great tab!!

guest
You may want to rate the tab now too:
select rating
Wanna post a correction for this tab? Suggest correction