Oops, an error
Loading. Please wait.

Fire On The Inside Tab

version 2
version 2

Whole song

268 views 1 this week
no commentswrite comment
1 2 3 4 5
excellent!
x 2
add to favorites
launch autoscroll
font size
0
reset
how to read this tab
guitar tuner
Tab Pro tools
  • play this tab
  • loop segment
  • change instrument
  • show fretboard
  • metronome
Autoscroll
slow
fast
+/-
esc
set tempo
stop
Contributor
Difficulty
intermediate
                                Fire On The Inside
Words and Music by
Rob Beckley,Noah Henson,Rob Graves,Jason Roy and Chris Stevens
Gtrs. 1, 2 & 3 tunes:
6= C 4= C 2= Bb
5= G 3= G 1= D

Gtr. 4 Standard tuning.

Moderately= 98
Gtr. 1 Riff A
harm. (all 5th fret notes)         harm. (all 4th fret notes)
|---------------------------------|---------------------------------|
|---------------------------------|---------------------------------|
|---------------------------------|---------------------------------|
|---------------------------------|---------------------------------|
|---------------------------------|---------------------------------|
|-5-0-5-0-5-5-0-5-0-5-0-5-5-0-5-0-|-4-0-4-0-4-4-0-4-0-4-0-4-4-0-4-0-|
harm. ( all 4th fret notes)*       harm. (all 3rd fret notes)
|---------------------------------|--------------------------| End Riff A
|---------------------------------|--------------------------|
|---------------------------------|--------------------------|
|---------------------------------|--------------------------|
|---------------------------------|--------------------------|
|-4-0-4-0-4-4-0-4-0-4-0-4-4-0-4-0-|-3-0-3-0-3-3-0-3-0-3-0-3-3|
* Lightly touch string w/ 1st finger of LH
closer to 3rd fret for correct pitch.

C5
Gtr. 1 Riff B
|---------------------|---------------------------|-------------------------|
|---------------------|---------------------------|-------------------------|
|---------------------|---------------------------|-------------------------|
|---------------------|--------------------45-4---|-------------------------|
|-35---3-6--35-3-6----|-35---3-6---35---35--------|-35---3-6---35---3-6-----|
|----0----0---0----0-0|----0-----0----0---------0-|----0-----0----0-----0-0-|
Gtr. 2 2nd time only
|-------------------------------------------------|-------------------------|
|-------------------------------------------------|-------------------------|
|-11-11-11-11-11-11-11-11-11-11-11-11-12-12-12-12-|-14-14-14-14-14-14-14-14-|
|-------------------------------------------------|-------------------------|
|-9--9--9--9--9--9--9--9--9--9--9--9--10-10-10-10-|-12-12-12-12-12-12-12-12-|
|-------------------------------------------------|-------------------------|

|-------------------------|-------------------------------------------------|
|-------------------------|-------------------------------------------------|
|-14-14-14-14-17-17-17-17-|-/19-19-19-19-19-19-19-19-19-19-19-19-19-19-19-19|
|-------------------------|-------------------------------------------------|
|-12-12-12-12-15-15-15-15-|-/17-17-17-17-17-17-17-17-17-17-17-17-17-17-17-17|
|-------------------------|-------------------------------------------------|
Gtr. 1 end Riff B
|------------------------------|--------------------------|
|------------------------------|--------------------------|
|------------------------------|--------------------------|
|------------------------------|--------------------------|
|-35---3-6---6---6-5-3-0-------|-35---3-6---6-5-3-0-------|
|----0-----0---0---------6-5-3-|----0-----0---------6-5-3-|
Gtr. 2                      v 1\4 grad. bend
|---------------------------------------------------|
|---------------------------------------------------|
|-/19-19-19-19-19-19-19-19-19--19-19-19-19-19-19-19-|
|---------------------------------------------------|
|-/16-16-16-16-16-16-16-16-16--16-16-16-16-16-16-16-|
|---------------------------------------------------|
Gtr. 3 Riff C
|----------------------|----------------|
|------------~~~~------|--------------~~|
|-7--5--7-/8-7--5--7/8-|--7--5--7-/-8-7-|
|-0--0--0----0--0--0---|--0--0--0-----0-|
|----------------------|----------------|
|----------------------|----------------|
    P.M.------   P.M.---------     P.M.------   P.M.-- 1\2 Bend
|------------------------------|-----------------------------|
|------------------------------|-----------------------7-7---|
|-57---5---8-7-57---5-7--8-7---|-57---5---8---57---5---------|
|----0---0-0-0----0-0-0--0-0-0-|----0---0-0-0----0---7-----0-|
|------------------------------|-----------------------------|
|------------------------------|-----------------------------|
Gtr. 2 Verse 2 only
|------------------------------|-----------------------------|
|-6----------------------7-----|-9---------------------------|
|------------------------------|-----------------------------|
|------------------------------|-----------------------------|
|------------------------------|-----------------------------|
|------------------------------|-----------------------------|


Gtr. 3
|----------------------|----------------|
|------------~~~~------|--------------~~|
|-7--5--7-/8-7--5--7/8-|--7--5--7-/-8-7-|
|-0--0--0----0--0--0---|--0--0--0-----0-|
|----------------------|----------------|
|----------------------|----------------|
    P.M.------   P.M.---------     P.M.------   P.M.-- 1\2 Bend
|------------------------------|-----------------------------|
|------------------------------|-----------------------7-7---|
|-57---5---8-7-57---5-7--8-7---|-57---5---8---57---5---------|
|----0---0-0-0----0-0-0--0-0-0-|----0---0-0-0----0---7-----0-|
|------------------------------|-----------------------------|
|------------------------------|-----------------------------|
Gtr. 2 Verse 2 only
|------------------------------|-----------------------------|
|-6----------------------7-----|-----------------------------|
|------------------------------|-----------------------------|
|------------------------------|-----------------------------|
|------------------------------|-----------------------------|
|------------------------------|-----------------------------|
Gtr. 3
|-----------------------------|-----------------------------| End Riff C
|-----------------------------|-----------------------------|
|-57---5---8-7-57---5-7-8-7---|-57---5---8-7-8-7-5----------|
|----0---0-0-0----0-0-0-0-0-0-|----0---0------------7-6-5-3-|
|-----------------------------|-----------------------------|
|-----------------------------|-----------------------------|
Gtr. 2
|-----------------------------|-----------------------------|
|-6---------------------7-----|-----------------------------|
|-----------------------------|-----------------------------|
|-----------------------------|-----------------------------|
|-----------------------------|-----------------------------|
|-----------------------------|-----------------------------|
Gtr. 3
|-----------------------------|-----------------------------|
|-----------------------------|-----------------------------|
|-57---5---8-7-57---5-7-8-7---|-57---5---8-7-8-7-5----------|
|----0---0-0-0----0-0-0-0-0-0-|----0---0------------7-6-5-3-|
|-----------------------------|-----------------------------|
|-----------------------------|-----------------------------|
Gtr. 1 Pre-Chrorus:
|---------------------|--------------------------|
|---------------------|--------------------------|
|---------------------|--------------------------|
|---------------------|--------------------------|
|---------------------|--------------------------|
|-2-2-2-2--3-3-3-3--3-|-2-2-2-2--3-3-3-3--3--2-0-|

|-----------------------------|---------------------------|
|-----------------------------|---------------------------|
|-----------------------------|---------------------------|
|-----------------------------|---------------------------|
|-----------------------------|---------------------------|
|-2-2-2-2--3-3-3-3--3--3-3--3-|-2-2-2-2--3-3-3-3--3--4--0-|
Gtr. 2 Chorus:
|-------------------------------|---------------------|
|-------------------------------|---------------------|
|-/11/12\11/12-12/14--14\11--\5-|---------------------|
|-------------------------------|-----/7-5--5--5----3-|
|-/-9/10\-9/10-10/12--12\-9--\3-|-0-0-/5-3--3--3-0--1-|
|-------------------------------|-0-0-/---------------|
              v1\4 bend (both 3's)
|------------------|------------------|----------------|
|------------------|------------------|----------------|
|------------------|------------------|----------------|
|-3-3-/7-5-5-5-----|-----/7-5-5-5---3-|-3-3-/7-5-5-5---|
|-1-1-/5-5-5-5---0-|---0-/5-3-3-3-0-1-|-1-1-/5-5-5-5---|
|--------5-5-5-3-0-|-3-0--------------|--------5-5-5-3-|
Gtr. 4 Guitar Solo
|-------------|-------------------------------8------------|-------------------------|
|---8---8-----|-8--------8------------11-11~~~--11---------|-------------------------|
|-5---7---7-8-|---8-8/10---10-10/12-9--------------10-(10)-|-8-10-8/10--8-------8----|
|-------------|--------------------------------------------|--------------10-8----10-|
|-------------|--------------------------------------------|-------------------------|
|-------------|--------------------------------------------|-------------------------|

|--------------------------------------|----------------------------------------|
|--------------------------------11-13-|-11----11-13/16-16-16-16-15-13-12-13-16-|
|------8/10-10-(10)-8----8/10-12-------|----12----------------------------------|
|-10-8----------------10---------------|----------------------------------------|
|--------------------------------------|----------------------------------------|
|--------------------------------------|----------------------------------------|

|-15-15-15----------13-13-13----------------------|----------------------------15--|
|----------13-13-13-------------------16-16-------|-16-15-13----13-------16-18-----|
|----------------------------12-12-12-------12-12-|----------15----15/17-----------|
|-------------------------------------------------|--------------------------------|
|-------------------------------------------------|--------------------------------|
|-------------------------------------------------|--------------------------------|

|-------------------15-18-|
|-18-16-15-16-15-16-------|
|-------------------------|
|-------------------------|
|-------------------------|
|-------------------------|
Outro:
Gtr. 2         Gtr. 3
|-------------|-------14-17-|
|-------------|-14-15-17-20-|
|---5-7-5-8-8-|-15-17-------|
|-8-------8-8-|-------------|
|-------------|-------------|
|-------------|-------------|
comments
We did not receive enough feedback on this tab! Please rate:
print report bad tab
1 2 3 4 5
I want to post or [tab]
guest
You may want to rate the tab now too:
select rating
Please do not post tabs as comments. Select "correction" instead!