Oops, an error
Loading. Please wait.

Fireproof Tab

version 4
version 4

Whole song

Interactive

668 views 1 this week
no commentswrite comment
1 2 3 4 5
please rate
add to favorites
launch autoscroll
font size
0
reset
how to read this tab
guitar tuner
Autoscroll
slow
fast
+/-
esc
set tempo
stop
Help us to improve Ultimate-Guitar.com Take our survey!
×
Author
Difficulty
Tuning
intermediate
D A D G B E
-----------------------------------------------------------------------------
                            Fireproof-Pillar
-----------------------------------------------------------------------------

Tabbed by: Max Andersen
e-mail: metalhead_7075@yahoo.ca

Tunning: Drop-D

riff 1
e|-------------|
B|-------------|
G|-------------|  (Play w/ delay)
D|-------------|  
A|-5--5--5--5--|
D|-0--2--3--5--|
   .  .  .  .
riff 2
e|--------------|
B|--------------|
G|--------------| w/ delay
D|--------------|
A|-5--5--5--5-7-|
D|-0--2--3--5-7-|
   .  .  .  . .
riff 3
e|---------------------------------------------|
B|---------------------------------------------|
G|---------------------------------------------|
D|---------------------------------------------|
A|-5-5----5---5-5----5---5-5----5---5-5----5---|
D|-0-0--0---0-2-2--2---2-3-3--3---3-5-5--5---5-|
   . .  .     . .  .     . .  .     . .  .

riff 4
e|------------------------------------------------|
B|------------------------------------------------|
G|------------------------------------------------|
D|------------------------------------------------|
A|-5-5----5---5-5----5---5-5----5---5-5-5-5-7-7-7-|
D|-0-0--0---0-2-2--2---2-3-3--3---3-5-5-5-5-7-7-7-|
   . .  .     . .  .     . .  .     . .     .

riff 5
e|-----------------------------------------------------|
B|-----------------------------------------------------|
G|-----------------------------------------------------|
D|-----------------------------------------------------|
A|-5--5-5-5x-5x-5--5-5-5x-5x-5--5-5-5x-5x-5--5-5-5x-5x-|
D|-0--0-0-0x-0x-2--2-2-2x-2x-3--3-3-3x-3x-5--5-5-5x-5x-|
      . .          . .          . .          . .  

riff 6
e|---------------------------------------------------------|
B|---------------------------------------------------------|
G|---------------------------------------------------------|
D|---------------------------------------------------------|
A|-5--5-5-5x-5x-5x-5-5-5x-5x-5-5-5-5-5-5-5-5-5-5-5-5-12\\\-|
D|-0--0-0-0x-0x-2x-2-2-2x-2x-3-3-3-3-3-3-3-3-5-5-5-5-12\\\-|
      . .          . .                            

riff 7
e|----------------------------------------------------|
B|----------------------------------------------------|
G|----------------------------------------------------|
D|----------------------------10-10-10-----10--7-7x-7-|
A|----------------------------8--8--8--8-8-8---5-5x-5-|
D|-0--13-12-13-0--13-12-13-0--8--8--8--8-8-8---5-5x-5-|
                                       . .  
riff 8
e|----------------------------------------------------|
B|----------------------------------------------------|
G|----------------------------------------------------|
D|----------------------------10-10-10-----10-7-------|
A|----------------------------8--8--8--8-8-8--5-8-8-8-|
D|-0--13-12-13-0--13-12-13-0--8--8--8--8-8-8--5-8-8-8-|
                                       . .
riff 9
e|--------------------------------------------------------------|
B|--------------------------------------------------------------|
G|--------------------------------------------------------------|
D|--------------------------------------------------------------|
A|------------------------------------10-10-8-8---------7-7-5-5-|
D|-0--13-12-13-0--13-12-13-0--8-8-8-8-----------5-5-5-5---------|
                              . . . . .  .  . . . . . . . . . .
riff 10
e|-------------------------------------------------------------------------|
B|-------------------------------------------------------------------------|
G|o------------------------------------------------------------------------|
D|o-5-7--5-7--0-5-7--0-5-7--5-7--5-7--0-5-7--0-5-7--3-5--3-5--0-3-5--0-3-5-|
A|-------------------------------------------------------------------------|
D|-------------------------------------------------------------------------|
    . .  . .  . . .  . . .  . .  . .  . . .  . . .  . .  . .  . . .  . . .       

e|--------------------------------|
B|--------------------------------|
G|-5-7--5-7--0-5-7--0-5-7--0-5-7-o|
D|-------------------------------o|
A|--------------------------------|
D|--------------------------------|
   . .  . .  . . .  . . .  . . .

riff 11
e|-------------------------------------------------------------------------|
B|-------------------------------------------------------------------------|
G|-----------------------------------------------------------5-7--5-7--5-7-|
D|-5-7--5-7--7b8r7-5--5-7--5-7--7b8r7----------------7b8r7-5---------------|
A|------------------------------------10--8-10--8-10-----------------------|
D|-------------------------------------------------------------------------|

e|---------------------------------------------------------|
B|---------------------------------------------------------| 
G|---------------------------------------------------------|
D|--------------------------------10-10-10-----10-7x-7x-7--|
A|--------------------------------8--8--8--8-8-8--5x-5x-5--|
D|-0--12-13-12-13-0-12-13-12-13-0-8--8--8--8-8-8--5x-5x-5--|
                                           . .
e|-----------------------------|
B|-----------------------------|
G|-----------------------------|
D|-5-7---5-7---5-7---------5-7-|
A|-5-5-5-5-5-5-5-5-5-5-5-5-5-5-|
D|-0-0-0-0-0-0-0-0-0-0-0-0-0-0-|
       .   .       . . . .     

| \ Slide down                                               -7x- 
| . Palm mute(e.g. riff 10)                                  -7x-
| x Mute note (Play the note or chord and then mute it. e.g. -7x-)
| b Bend note to shown mumber 
| r Release note to original spot

Hope its better then the other ones on UG!
Suggest correction
Give kudos to tab author, rate the tab!
1 2 3 4 5
comments
print report bad tab
guest
You may want to rate the tab now too:
select rating
Please do not post tabs as comments. Select "correction" instead!