Oops, an error
Loading. Please wait.

Fireproofacoustic Tab

1,078 views 1 this week
no commentswrite comment
1 2 3 4 5
please rate
add to favorites
launch autoscroll
font size
0
reset
how to read this tab
guitar tuner
Tab Pro tools
  • play this tab
  • loop segment
  • change instrument
  • show fretboard
  • metronome
×
Best way to learn
"Fireproofacoustic"
Autoscroll
slow
fast
+/-
esc
set tempo
stop
Contributor
Drop D Tuning-DADGBe

(Intro-Palm Mute)
e-------------------------------------|
B-------------------------------------|
G-------------------------------------|  (3x)
D-------------------------------------|
A-0--0-0---2--2-2---3--3-3---5--5-5---|
D-0--0-0---2--2-2---3--3-3---5--5-5---|

e---------------------------------------|
B---------------------------------------|
G---------------------------------------|
D---------------------------------------|
A-0--0-0---2--2-2---3--3-3---5--5-5---8-|
D-0--0-0---2--2-2---3--3-3---5--5-5---8-|

(Verse 1)
e---------------------------------------|
B---------------------------------------|
G---------------------------------------|  (5x)
D----------0-------0-------0-------0----|
A------00-0----22-2----33-3----55-5-----|
D------00-0--0-22-2--2-33-3--3-55-5--5--|
       pm--    pm--    pm--    pm-------|

(Pre-Chorus)
(Guitar 1)
e------------------------------------|
B------------------------------------|
G------------------------------------|
D-00-00-0--22-22-2--33-33-3--55-55-5-|
A-00-00-0--22-22-2--33-33-3--55-55-5-|
D-00-00-0--22-22-2--33-33-3--55-55-5-|

(Guitar 2)
e-------------------------------------|
B-------------------------------------|
G-------------------------------------|
D-0-0-0-0-0-0-0-0-0-0-0-0-0-0-0-0-0-0-|
A-------------------------------------|
D-------------------------------------|

(Chorus)
e----------------------------------------|
B----------------------------------------|
G----------------------------------------|  (4x)
D-----------------------8888--8--5555--5-|
A---------656-----656---8888--8--5555--5-|
D------0-0---0---0---0--8888--8--5555--5-|

(Chorus Outro-Palm Mute)
e-------------------------------------|
B-------------------------------------|
G-------------------------------------|  (2x)
D-------------------------------------|
A-0--0-0---2--2-2---3--3-3---5--5-5---|
D-0--0-0---2--2-2---3--3-3---5--5-5---|

(Verse 2)
e---------------------------------------|
B---------------------------------------|
G---------------------------------------|  (4x)
D----------0-------0-------0-------0----|
A------00-0----22-2----33-3----55-5-----|
D------00-0--0-22-2--2-33-3--3-55-5--5--|
       pm--    pm--    pm--    pm-------|

(Pre-Chorus)
(Guitar 1)
e------------------------------------|
B------------------------------------|
G------------------------------------|
D-00-00-0--22-22-2--33-33-3--55-55-5-|
A-00-00-0--22-22-2--33-33-3--55-55-5-|
D-00-00-0--22-22-2--33-33-3--55-55-5-|

(Guitar 2)
e-------------------------------------|
B-------------------------------------|
G-------------------------------------|
D-0-0-0-0-0-0-0-0-0-0-0-0-0-0-0-0-0-0-|
A-------------------------------------|
D-------------------------------------|

(Chorus)
e----------------------------------------|
B----------------------------------------|
G----------------------------------------|  (4x)
D-----------------------8888--8--5555--5-|
A---------656-----656---8888--8--5555--5-|
D------0-0---0---0---0--8888--8--5555--5-|

(Bridge-Part 1-Palm Mute)
(Guitar 1)
e--------------------------|
B--------------------------|
G--------------------------|
D--0-0-0-3-3-3-5-5-5-3-3-3-|
A--0-0-0-3-3-3-5-5-5-3-3-3-|
D--0-0-0-3-3-3-5-5-5-3-3-3-|

(Guitar 2)
e----------------------------|
B----------------------------|
G----------------------------|
D-0-5-7-8-7-5-7--0-5-7-8-7-5-|
A----------------------------|
D----------------------------|

(Bridge-Part 2)
e---------------------------------------------------------------|
B---------------------------------------------------------------|
G---------------------------------------------------------------|
D----5-5-7-7------3-3-5-5------5-5-7-7------3-3-5-5------5-5-7--|
A----5-5-7-7-(3x)-3-3-5-5-(3x)-5-5-7-7-(3x)-3-3-5-5-(3x)-5-5-7--|
D----5-5-7-7------3-3-5-5------5-5-7-7------3-3-5-5------5-5-7--|

e-------------------------------------|
B-------------------------------------|
G-------------------------------------|
D----------------------------7--5-5-5-|
A-------3/5-5/7\5-5\3-3\5-5--7--5-5-5-|
D--0-0-----------------------7--5-5-5-|

(Chorus)
e----------------------------------------|
B----------------------------------------|
G----------------------------------------|  (8x)
D-----------------------8888--8--5555--5-|
A---------656-----656---8888--8--5555--5-|
D------0-0---0---0---0--8888--8--5555--5-|

(Outro)
e---------------------|
B---------------------|
G---------------------|
D-5-7--5-7--5-7---3-5-|
A-5-7--5-7--5-7---3-5-|
D-5-7--5-7--5-7---3-5-|
comments
We did not receive enough feedback on this tab! Please rate:
print report bad tab
1 2 3 4 5
I want to post or [tab]
guest
You may want to rate the tab now too:
select rating
Please do not post tabs as comments. Select "correction" instead!