Oops, an error
Loading. Please wait.

For The Love Of The Game Bass Tab

version 1
version 1

Whole song

Interactive

3,267 views 3 this week
1 commentread comment
1 2 3 4 5
excellent!
x 3
add to favorites
launch autoscroll
font size
0
reset
guitar tuner
Autoscroll
slow
fast
+/-
esc
set tempo
stop
Help us to improve Ultimate-Guitar.com Take our survey!
×
Author
Difficulty
Tuning
intermediate
D A D G B E
For the Love of the Game- Pillar

There are few part I wasn't sure about. If you think something is wrong, feel free 
it, just keep it in the same key.

Intro
G|---------------------------------------------|
D|---------------------------------------------|
A|---5-5-3-0-------3---------5-5-3-0-------3---|
D|0-0--------3--3-3--3-3--0-0--------3--3-3--3-|

G|-------------------------------------------------|
D|-------------------------------------------------|
A|---5-5-3-0-------3---------5-5-3-0----------3----|
D|0-0--------3--3-3--3-3--0-0--------3--0-3—-5-5-3-|

Verse
G|----------------------------------------|
D|----------------------------------------|
A|----------------------------------------|
D|-0-0----0-0----0-0----3--0-3--565-3-0-0-|

G|----------------------------------------|
D|----------------------------------------|
A|-------------------------------3--------|
D|-0-0----0-0----0-0----3—-0-3—-5-5-3-0-0-|

G|----------------------------------------|
D|----------------------------------------|
A|----------------------------------------|
D|-0-0----0-0----0-0----3--0-3--565-3-0-0-|x2

Pre-Chorus
G|-------------------------------------------|
D|-------------------------------------------|
A|--------------------------33223355332223---|
D|-0-022--2-2--233--3-3-0-0---------------0-0|

G|-------------------------------------------|
D|------------------------------------5522---|
A|--------------------------3322335533-------|
D|-0-022--2-2--233--3-3-0-0---------------0-0|

G|-------------------------------------------|
D|-------------------------------------------|
A|------------------------00000000-----------|
D|-0—022--2-2--2-33333333----------55555555-0|

Chorus
G|-----------------------------------|
D|-----------------------------------|
A|-----------------------------------|
D|-0000000000000000-2222222222222222-|

G|-----------------------------------|
D|-----------------------------------|
A|------------------------------3333-|
D|-5555555555555555-333333333333-----|

G|-----------------------------------|
D|-----------------------------------|
A|-----------------------------------|
D|-0000000000000000-2222222222222222-|

G|-----------------------------------|
D|-----------------------------------|
A|------------------0000000000003333-|
D|-5555555555555555------------------|

Post-Chorus
G|----------------------------------------------|
D|----------------------------------------------|
A|---5-5-3-0-------3---------5-5-3-0-------3----|
D|0-0--------3--3-3--3-3--0-0--------3--3-3--3-3|

G|-------------------------------------|
D|-------------------------------------|
A|---5-5-3-0-------3---------5-5-3-0---|
D|0-0--------3--3-3--3-3--0-0--------3-|

Verse
G|----------------------------------------|
D|----------------------------------------|
A|----------------------------------------|
D|-0-0----0-0----0-0----3--0-3--565-3-0-0-|

G|----------------------------------------|
D|----------------------------------------|
A|-------------------------------3--------|
D|-0-0----0-0----0-0----3—-0-3—-5-5-3-0-0-|

G|----------------------------------------|
D|----------------------------------------|
A|----------------------------------------|
D|-0-0----0-0----0-0----3--0-3--565-3-0-0-|x2

Pre-Chorus
G|-------------------------------------------|
D|-------------------------------------------|
A|--------------------------33223355332223---|
D|-0-022--2-2--233--3-3-0-0---------------0-0|

G|-------------------------------------------|
D|------------------------------------5522---|
A|--------------------------3322335533-------|
D|-0-022--2-2--233--3-3-0-0---------------0-0|

G|------------------------------------------|
D|------------------------------------------|
A|----------------------00000000------------|
D|-0--22222222—33333333----------55555555-8/|

Chorus
G|-----------------------------------|
D|-----------------------------------|
A|-----------------------------------|
D|-0000000000000000-2222222222222222-|

G|-----------------------------------|
D|-----------------------------------|
A|------------------------------3333-|
D|-5555555555555555-333333333333-----|

G|-----------------------------------|
D|-----------------------------------|
A|-----------------------------------|
D|-0000000000000000-2222222222222222-|

G|-----------------------------------|
D|-----------------------------------|
A|------------------0000000000003333-|
D|-5555555555555555------------------|

Bridge
G|----------------------------------------------|
D|-------------------------------------3------5-|
A|-5--3-0------5-3-0-----5—-3-0-------3-3-0-3---|
D|--------3-0--------3-0---------3-0------------|

G|------------------------------------|
D|------------------------------------|
A|----------------------------0000----|
D|-55555555-00000000-33333333-----888-|

Pre-Chorus
G|------------------------|
D|------------------------|
A|-------33223355332223---|
D|-8/---0--------------0-0|

G|-------------------------------------------|
D|------------------------------------5522---|
A|--------------------------3322335533-------|
D|-0-022--2-2--233--3-3-0-0---------------0-0|

G|----------------------------------------|
D|----------------------------------------|
A|---------------------00000000-----------|
D|-0--22222222—33333333--------55555555-8/|

Chorus
G|-----------------------------------|
D|-----------------------------------|
A|-----------------------------------|
D|-0000000000000000-2222222222222222-|

G|-----------------------------------|
D|-----------------------------------|
A|------------------------------3333-|
D|-5555555555555555-333333333333-----|

G|-----------------------------------|
D|-----------------------------------|
A|-----------------------------------|
D|-0000000000000000-2222222222222222-|

G|-----------------------------------|
D|-----------------------------------|
A|------------------0000000000005555-|
D|-5555555555555555------------------|

Outro
G|----------------------------------------------|
D|----------------------------------------------|
A|-5--3-0------5-3-0------5—-3-0------5-3-0-----|
D|--------3-0--------3-0---------3-0--------3-0-|

Fin.
Suggest correction
Give kudos to tab author, rate the tab!
1 2 3 4 5
comments
print report bad tab
1 comment total.
+1 reply
SK8nBASS 1,851 wrote on May 22 2010, 08:17 pm

I think the tuning is supposed to be drop C... this tab is correct if you play it in drop C

otherwise, great job! 5*

guest
You may want to rate the tab now too:
select rating
Please do not post tabs as comments. Select "correction" instead!