Oops, an error
Loading. Please wait.

Fronline Bass Tab

898 views 1 this week
no commentswrite comment
1 2 3 4 5
please rate
add to favorites
launch autoscroll
font size
0
reset
guitar tuner
Autoscroll
slow
fast
+/-
esc
set tempo
stop
Help us to improve Ultimate-Guitar.com Take our survey!
×
Contributor
Frontline by Pillar
from the album Where Do We Go From Here.
tabbed by daimondbass11

i play it on my 5 string bass because i hate drastic tuning but you can tune this 
low if you want on a four string. but its pretty spot on i think :D
please rate and tell me what you think i couldve improved on




Intro
-----

G---------------------------------------------------------|
D---------------------------------------------------------|
A---------------------------------------------------------|
E-----------------------------44444-4-4-4-----------------|
B-66666-6-6-6---66666-6-6-6-----------------11111-1-1-1---|


Verse
-----

G-----------------------------------------------------------------|
D-----------------------------------------------------------------|
A-----------------------------------------------------------------|
E---------------------------------4444444-4-4-4-------------------|
B-6666666-6-6-6---6666666-6-6-6-------------------1111111-1-1-1---|

Chorus
------

G---------------------------------------------|
D---------------------------------------------|
A---------------------------------------------|
E--------------------------4444---------------|
B-4h6-666-4h6-666-4h6-66----------4-4444/(11)-|
alternate these two
G------------------------------------------|
D------------------------------------------|
A------------------------------------------|
E--------------------------4444------------|
B-4h6-666-4h6-666-4h6-66---------11-4-4h6--|   (1's not 11)


Intro
-----

G---------------------------------------------------------|
D---------------------------------------------------------|
A---------------------------------------------------------|
E-----------------------------44444-4-4-4-----------------|
B-66666-6-6-6---66666-6-6-6-----------------11111-1-1-1---|

Verse
-----

G-----------------------------------------------------------------|
D-----------------------------------------------------------------|
A-----------------------------------------------------------------|
E---------------------------------4444444-4-4-4-------------------|
B-6666666-6-6-6---6666666-6-6-6-------------------1111111-1-1-1---|



Chorus
------

G---------------------------------------------|
D---------------------------------------------|
A---------------------------------------------|
E--------------------------4444---------------|
B-4h6-666-4h6-666-4h6-66----------4-4444/(11)-|
alternate these two
G------------------------------------------|
D------------------------------------------|
A------------------------------------------|
E--------------------------4444------------|
B-4h6-666-4h6-666-4h6-66---------11-4-4h6--|   (1's not 11)

Bridge

G--------------------------------------------------------------|
D------------------------------------6-5-----------------------|
A-----------------------------------8---8-6-6\4----------------|  
E-----------------------4~-------------------------------------|
B---6~--6~--2~--6~--6~------2~--6~-6-------------6~--6~--4~--2~| 
(youll need to listen for the timing)


G-------------|
D-------------|
A-------------|
E-------------|
B---6-4-1-2-0-|    x7


Chorus  x2
-------
G---------------------------------------------|          \
D---------------------------------------------|          |
A---------------------------------------------|          |
E--------------------------4444---------------|          |
B-4h6-666-4h6-666-4h6-66----------4-4444/(11)-|          |
alternate these two                                      |
G-------------------------------------------|            |
D-------------------------------------------|            |
A-------------------------------------------|            |
E--------------------------4444-------------|            |
B-4h6-666-4h6-666-4h6-66---------1|1-4-4h6--|            / x2 (1's not 11)

then end on 

G---------------------------|
D---------------------------|
A---------------------------|
E---------------------------|
B--6666-6666-6---66666-6\---|
Suggest correction new What's this?
You can suggest a correction to this tab. Community and Mods will review your correction and vote to approve or reject it.
comments
We did not receive enough feedback on this tab! Please rate:
print report bad tab
1 2 3 4 5
guest
You may want to rate the tab now too:
select rating
Please do not post tabs as comments. Select "correction" instead!