Oops, an error
Loading. Please wait.

Frontline Bass Tab

version 1
version 1

Whole song

Interactive

8,830 views 1 this week
3 commentsread comments
1 2 3 4 5
accurate
x 3
add to favorites
launch autoscroll
font size
0
reset
guitar tuner
Autoscroll
slow
fast
+/-
esc
set tempo
stop
Help us to improve Ultimate-Guitar.com Take our survey!
×
Author
Difficulty
Tuning
novice
C G C F A D
----------------------------------------------------------------
                          Pillar - Frontline
----------------------------------------------------------------
DROP C
Bass tab for frontline
i was surprised there weren't any so i tabbed the root notes and heres
what i got.
any questions emails me at x_metal_x4x_life_x@yahoo.com

h | hammer-on
p | pull off
\ | slide down

you can also palm mute whatever you want to get
the sound you need i didnt include the palm mutes tho
i didnt include the x's to play it either if u want them ill add.

Intro
-----

F---------------------------------------------------------|
C---------------------------------------------------------|
G-----------------------------11111-1-1-1-----------------|
C-55555-5-5-5---55555-5-5-5-----------------00000-0-0-0---|

after that add this fill

F---------|
C-7-7h8p7-|
G---------|
C---------|

Verse
-----

F-----------------------------------------------------------------|
C-----------------------------------------------------------------|
G---------------------------------1111111-1-1-1-------------------|
C-5555555-5-5-5---5555555-5-5-5-------------------0000000-0-0-0---|

Chorus
------

F---------------------------------------------|
C---------------------------------------------|
G--------------------------1111---------------|
C-3h5-555-3h5-555-3h5-55----------3-3333/10---|
alternate these two
F------------------------------------------|
C------------------------------------------|
G--------------------------1111------------|
C-3h5-555-3h5-555-3h5-55---------00-3-3h5--|

Chorus end 

F-----------------------|
C-----------------------|
G-----------------------|
C--555555-55-000000-00--|

-=REPEAT VERSE=-
-=ADD VERSE FILL AFTER 1x=-
-=VERSE=-
-=CHORUS=-
-=CHORUS END=-

Interlude
---------

---------------------
No Bass for Interlude
---------------------

Bridge

F---------------------|
C---------------------|
G---------------------|
C---5555-5555-5-19\5--| x1

F-------------------|
C-------------------|
G---------5-----3---|  x?
C---55-33---11----3-|

Bridge End
----------

F-------------------|
C-------------------|
G-------------------|
C--5555-5555-5-19\5-|

-=CHORUS=-

after x1 play
C----5555-5555-5-0000-0000-0--|

-=CHORUS=-

then end on 

F--------------------------|---------------|
C--------------------------|---------------|
G--------------------------|---------------|
C--5555-5555-5-0000-0000-0-|----55555-5\---|
Suggest correction
What's this?
You can suggest a correction to this tab. Community and Mods will review your correction and vote to approve or reject it.
comments
We did not receive enough feedback on this tab! Please rate:
print report bad tab
1 2 3 4 5
3 comments total.
0 reply
daimondbass11 121 wrote on March 15 2009, 07:57 pm

Michael Wittig just uses a 5 string, he doesnt really need to down tune

0 reply
daimondbass11 121 wrote on July 4 2009, 12:18 pm

no. im sorry. i talked to the bassist last week and he uses a 4 string. my bad.

0 reply
Jacob Christ 14 wrote on September 19 2009, 07:05 pm

Good tab, but there is bass in the Interlude...

guest
You may want to rate the tab now too:
select rating
Please do not post tabs as comments. Select "correction" instead!