Oops, an error
Loading. Please wait.

Frontline Tab

version 2
version 2

Whole song

Interactive

32,268 views 39 this week
12 commentsread comments
1 2 3 4 5
excellent!
x 10
add to favorites
launch autoscroll
font size
0
reset
how to read this tab
guitar tuner
Autoscroll
slow
fast
+/-
esc
set tempo
stop
Help us to improve Ultimate-Guitar.com Take our survey!
×
Contributor
hairguitar 1,093
#----------------------------------PLEASE NOTE---------------------------------#
#This file is the author's own work and represents their interpretation of the #
#song. You may only use this file for private study, scholarship, or research. #
#------------------------------------------------------------------------------#


        

Gtr I (C G C F A D) - 'Untitled'
Gtr II (C G C F A D) - 'Untitled'
  Q=115
 4/4
  Gtr I
  S S E E E E Q  S S   S S E E E E Q  E
|--------------------|------------------|
|--------------------|------------------|
|--------------------|------------------|
|-----8-8-7-7--------|-----8-8-7-7------|
|-5-5-5-5-5-5----5-5-|-5-5-5-5-5-5------|
|-5-5-5-5-5-5----5-5-|-5-5-5-5-5-5------|


                     
  PM|              PM------|
  S S  E  E E E Q  S S   S S  E  E E E Q  E
|----------------------|--------------------|
|----------------------|--------------------|
|----------------------|--------------------|
|-----10-10-8-8--------|-----10-10-7-7------|
|-8-8--8--8-8-8----0-0-|-0-0--0--0-0-0------|
|-8-8--8--8-8-8----0-0-|-0-0--0--0-0-0------|


  
  PM|            PM------|
  S S E E E E Q  S S   S S E E E E Q  E
|--------------------|------------------|
|--------------------|------------------|
|--------------------|------------------|
|-----8-8-7-7--------|-----8-8-7-7------|
|-5-5-5-5-5-5----5-5-|-5-5-5-5-5-5------|
|-5-5-5-5-5-5----5-5-|-5-5-5-5-5-5------|


                      
  PM|              PM------|
  S S  E  E E E Q  S S   S S  E  E E E E E   +S  S
|----------------------|---------------------------||
|----------------------|---------------------------||
|----------------------|---------------------------||
|-----10-10-8-8--------|-----10-10-7-7---7b8r(7)---||
|-8-8--8--8-8-8----0-0-|-0-0--0--0-0-0-----------8-||
|-8-8--8--8-8-8----0-0-|-0-0--0--0-0-0-------------||


    
    PM|                       PM
    S S E E E E E E S S   +S  S E E E E E E S S
||----------------------|-----------------------|
||o---------------------|-----------------------|
||--------------7-------|---------------7-------|
||------8-8-7-7-5-5-----|-------8-8-7-7-5-5-----|
||o-5-5-5-5-5-5-5-5-5-5-|-(5)-5-5-5-5-5-5-5-5-5-|
||--5-5-5-5-5-5-5-5-5-5-|-(5)-5-5-5-5-5-5-5-5-5-|


                               
      PM
  +S  S  E  E E E  E  E S S   +S  S  E  E E E  E  E E
|---------------------------|--------------------------||
|---------------------------|-------------------------o||
|-----------------10-10-----|-----------------10-10----||
|-------10-10-8-8--8--8-----|-------10-10-7-7--0--0----||
|-(5)-8--8--8-8-8--8--8-8-8-|-(8)-0--0--0-0-0--0--0-0-o||
|-(5)-8--8--8-8-8--8--8-8-8-|-(8)-0--0--0-0-0--0--0-0--||


  S S S S S S S S S S S S Q    S S S S S S S E +S  S S S  E  +S
|----------------------------|-----------------------------------|
|----------------------------|-----------------------------------|
|----------------------------|-----------------------------------|
|-3-5-5-5-5-5-3-5-5-5-5-5-5--|-8-8-8-8-8-5-3-3-(3)-3-3-3-10-(10)-|
|-3-5-5-5-5-5-3-5-5-5-5-5-5--|-8-8-8-8-8-5-3-3-(3)-3-3-3-10-(10)-|
|-3-5-5-5-5-5-3-5-5-5-5-5-5--|-8-8-8-8-8-5-3-3-(3)-3-3-3-10-(10)-|


  S S S S S S S S S S S S Q    S S S S S S S E E S Q
|----------------------------|-------------------------|
|----------------------------|-------------------------|
|----------------------------|-------------------------|
|-3-5-5-5-5-5-3-5-5-5-5-5-5--|-8-8-8-8-8-5-3-1-1-1-3---|
|-3-5-5-5-5-5-3-5-5-5-5-5-5--|-8-8-8-8-8-5-3-1-1-1-3---|
|-3-5-5-5-5-5-3-5-5-5-5-5-5--|-8-8-8-8-8-5-3-1-1-1-3---|


  S S S S S S S S S S S S Q    S S S S S S S E +S  S S S  E  +S
|----------------------------|-----------------------------------|
|----------------------------|-----------------------------------|
|----------------------------|-----------------------------------|
|-3-5-5-5-5-5-3-5-5-5-5-5-5--|-8-8-8-8-8-5-3-3-(3)-3-3-3-10------|
|-3-5-5-5-5-5-3-5-5-5-5-5-5--|-8-8-8-8-8-5-3-3-(3)-3-3-3-10-(10)-|
|-3-5-5-5-5-5-3-5-5-5-5-5-5--|-8-8-8-8-8-5-3-3-(3)-3-3-3-10-(10)-|


       PM--|    PM--|     PM|      PM|
  S Q  S S S Q  S S S S   S S S Q  S S S Q  S S   S S S S S S +H     +E
|-----------------------|-----------------------|------------------------|
|-----------------------|-----------------------|------------------------|
|-----------------------|-----------------------|------------------------|
|---1--1-1-1-1--1-1-1-1-|-1-1-1-3--3-3-3-3--3-3-|-3-3-3-3-3-5-(5)----(5)-|
|---1--1-1-1-1--1-1-1-1-|-1-1-1-3--3-3-3-3--3-3-|-3-3-3-3-3-5-(5)----(5)-|
|---1--1-1-1-1--1-1-1-1-|-1-1-1-3--3-3-3-3--3-3-|-3-3-3-3-3-5-(5)----(5)-|


  PM|                PM|
  S S E E E E Q  E   S S E E E E Q  E
|------------------|------------------|
|------------------|------------------|
|------------------|------------------|
|-----8-8-7-7------|-----8-8-7-7------|
|-5-5-5-5-5-5------|-5-5-5-5-5-5------|
|-5-5-5-5-5-5------|-5-5-5-5-5-5------|


  PM|                  PM|
  S S  E  E E E Q  E   S S  E  E E E E E   +S  S
|--------------------|---------------------------|
|--------------------|---------------------------|
|--------------------|---------------------------|
|-----10-10-8-8------|-----10-10-7-7---7b8r(7)---|
|-8-8--8--8-8-8------|-0-0--0--0-0-0-----------8-|
|-8-8--8--8-8-8------|-0-0--0--0-0-0-------------|


    PM|                       PM
    S S E E E E E E S S   +S  S E E E E E E S S
||----------------------|-----------------------|
||o---------------------|-----------------------|
||--------------7-------|---------------7-------|
||------8-8-7-7-5-5-----|-------8-8-7-7-5-5-----|
||o-5-5-5-5-5-5-5-5-5-5-|-(5)-5-5-5-5-5-5-5-5-5-|
||--5-5-5-5-5-5-5-5-5-5-|-(5)-5-5-5-5-5-5-5-5-5-|


    PM
  S S  E  E E E  E  E S S   +S  S  E  E E E  E  E E
|-------------------------|--------------------------||
|-------------------------|-------------------------o||
|---------------10-10-----|-----------------10-10----||
|-----10-10-8-8--8--8-----|-------10-10-7-7--0--0----||
|-5-8--8--8-8-8--8--8-8-8-|-(8)-0--0--0-0-0--0--0-0-o||
|-5-8--8--8-8-8--8--8-8-8-|-(8)-0--0--0-0-0--0--0-0--||


  S S S S S S S S S S S S Q    S S S S S S S E +S  S S S  E  +S
|----------------------------|-----------------------------------|
|----------------------------|-----------------------------------|
|----------------------------|-----------------------------------|
|-3-5-5-5-5-5-3-5-5-5-5-5-5--|-8-8-8-8-8-5-3-3-(3)-3-3-3-10-(10)-|
|-3-5-5-5-5-5-3-5-5-5-5-5-5--|-8-8-8-8-8-5-3-3-(3)-3-3-3-10-(10)-|
|-3-5-5-5-5-5-3-5-5-5-5-5-5--|-8-8-8-8-8-5-3-3-(3)-3-3-3-10-(10)-|


  S S S S S S S S S S S S Q    S S S S S S S E E S Q
|----------------------------|-------------------------|
|----------------------------|-------------------------|
|----------------------------|-------------------------|
|-3-5-5-5-5-5-3-5-5-5-5-5-5--|-8-8-8-8-8-5-3-1-1-1-3---|
|-3-5-5-5-5-5-3-5-5-5-5-5-5--|-8-8-8-8-8-5-3-1-1-1-3---|
|-3-5-5-5-5-5-3-5-5-5-5-5-5--|-8-8-8-8-8-5-3-1-1-1-3---|


  S S S S S S S S S S S S Q    S S S S S S S E +S  S S S  E  +S
|----------------------------|-----------------------------------|
|----------------------------|-----------------------------------|
|----------------------------|-----------------------------------|
|-3-5-5-5-5-5-3-5-5-5-5-5-5--|-8-8-8-8-8-5-3-3-(3)-3-3-3-10-(10)-|
|-3-5-5-5-5-5-3-5-5-5-5-5-5--|-8-8-8-8-8-5-3-3-(3)-3-3-3-10-(10)-|
|-3-5-5-5-5-5-3-5-5-5-5-5-5--|-8-8-8-8-8-5-3-3-(3)-3-3-3-10-(10)-|


       PM--|    PM--|     PM|      PM|
  S Q  S S S Q  S S S S   S S S Q  S S S Q  S S   S S S S S S +H     +E
|-----------------------|-----------------------|------------------------|
|-----------------------|-----------------------|------------------------|
|-----------------------|-----------------------|------------------------|
|-----------------------|-----------------------|------------------------|
|---1--1-1-1-1--1-1-1-1-|-1-1-1-3--3-3-3-3--3-3-|-3-3-3-3-3-5-(5)----(5)-|
|---1--1-1-1-1--1-1-1-1-|-1-1-1-3--3-3-3-3--3-3-|-3-3-3-3-3-5-(5)----(5)-|


  Gtr II
                                PM
  W          H    E S S E S S   E Q  +H     E
|----------|------------------|---------------|
|----------|------------------|---------------|
|----------|------------7-5-3-|---3--(3)------|
|----------|------3-3S5-------|-3-------------|
|----------|------------------|---------------|
|----------|------------------|---------------|


  W          S S S Q  S S S Q  +E
|----------|------------------------|
|----------|-----3-6------6-8--(8)--|
|----------|-3-5------5-7-----------|
|----------|------------------------|
|----------|------------------------|
|----------|------------------------|


  S S S +H     S Q    W          S S Q    +Q     +Q     +E    +E  S E S H    E
|-------------------|----------|----------------------------|------------------|
|-8-6-3-(3)---------|----------|-----6b8r=(6)b8r=(6)b8r=(6)-|-(6)-8-6----------|
|-------------------|----------|-5-7------------------------|---------7-5------|
|-------------------|----------|----------------------------|------------------|
|-------------------|----------|----------------------------|------------------|
|-------------------|----------|----------------------------|------------------|


   W          W          +H     S S Q  E
|-----------|----------|------------------|
|-----------|----------|------------------|
|-/7--------|-5--------|-(5)----3-5-------|
|-----------|----------|------------3-----|
|-----------|----------|------------------|
|-----------|----------|------------------|


  Gtr I
  E S S E E S S E Q       E S E S E E E E E  3x
|---------------------||---------------------||
|---------------------||o-------------------o||
|---------------------||---------------------||
|-5-5-5---5-5-5-------||---------------------||
|-5-5-5---5-5-5-------||o---------5-----3---o||
|-5-5-5---5-5-5---7\--||--5-5-3-3---1-3---3--||


            PM------------|
  E S E S E S S S S S S S S     E S E S E E E E E  3x
|---------------------------||---------------------||
|---------------------------||o-------------------o||
|---------------------------||---------------------||
|---------------------------||---------------------||
|---------5-3-3-3-3-5-5-5-5-||o---------5-----3---o||
|-5-5-3-3---3-3-3-3-5-5-5-5-||--5-5-3-3---1-3---3--||


  E S E S E S S S S S S S S   E S S E E S S E Q
|---------------------------|---------------------|
|---------------------------|---------------------|
|---------------------------|---------------------|
|---------------------------|-5-5-5---5-5-5-------|
|---------5-1-1-1-1-3-3-3-3-|-5-5-5---5-5-5-------|
|-5-5-3-3---1-1-1-1-3-3-3-3-|-5-5-5---5-5-5---7\--|


    S S S S S S S S S S S S Q    S S S S S S S E +S  S S S  E  +S
||-----------------------------|-----------------------------------|
||o----------------------------|-----------------------------------|
||-----------------------------|-----------------------------------|
||--3-5-5-5-5-5-3-5-5-5-5-5-5--|-8-8-8-8-8-5-3-3-(3)-3-3-3-10-(10)-|
||o-3-5-5-5-5-5-3-5-5-5-5-5-5--|-8-8-8-8-8-5-3-3-(3)-3-3-3-10-(10)-|
||--3-5-5-5-5-5-3-5-5-5-5-5-5--|-8-8-8-8-8-5-3-3-(3)-3-3-3-10-(10)-|


  S S S S S S S S S S S S Q    S S S S S S S E E S Q
|----------------------------|-------------------------|
|----------------------------|-------------------------|
|----------------------------|-------------------------|
|-3-5-5-5-5-5-3-5-5-5-5-5-5--|-8-8-8-8-8-5-3-1-1-1-3---|
|-3-5-5-5-5-5-3-5-5-5-5-5-5--|-8-8-8-8-8-5-3-1-1-1-3---|
|-3-5-5-5-5-5-3-5-5-5-5-5-5--|-8-8-8-8-8-5-3-1-1-1-3---|


  S S S S S S S S S S S S Q    S S S S S S S E +S  S S S  E  +S
|----------------------------|-----------------------------------|
|----------------------------|-----------------------------------|
|----------------------------|-----------------------------------|
|-3-5-5-5-5-5-3-5-5-5-5-5-5--|-8-8-8-8-8-5-3-3-(3)-3-3-3-10-(10)-|
|-3-5-5-5-5-5-3-5-5-5-5-5-5--|-8-8-8-8-8-5-3-3-(3)-3-3-3-10-(10)-|
|-3-5-5-5-5-5-3-5-5-5-5-5-5--|-8-8-8-8-8-5-3-3-(3)-3-3-3-10-(10)-|


       PM--|    PM--|     PM|      PM|
  S Q  S S S Q  S S S S   S S S Q  S S S Q  S S   S S S S S S +H     +E
|-----------------------|-----------------------|-------------------------||
|-----------------------|-----------------------|------------------------o||
|-----------------------|-----------------------|-------------------------||
|-----------------------|-----------------------|-------------------------||
|---1--1-1-1-1--1-1-1-1-|-1-1-1-3--3-3-3-3--3-3-|-3-3-3-3-3-5-(5)----(5)-o||
|---1--1-1-1-1--1-1-1-1-|-1-1-1-3--3-3-3-3--3-3-|-3-3-3-3-3-5-(5)----(5)--||


 
Duration Legend
---------------
W - whole; H - half; Q - quarter; E - 8th; S - 16th; T - 32nd; X - 64th; a - acciaccatura
+ - note tied to previous; . - note dotted; .. - note double dotted
Uncapitalized letters represent notes that are staccato (1/2 duration)
Irregular groupings are notated above the duration line
Duration letters will always appear directly above the note/fret number it represents the
duration for.  Duration letters with no fret number below them represent rests.  Multi-
bar rests are notated in the form Wxn, where n is the number of bars to rest for.  Low
melody durations appear below the staff

Tablature Legend
----------------
 h   - hammer-on
 p   - pull-off
 b   - bend
 pb  - pre-bend
 r   - bend release (if no number after the r, then release immediately)
 /\  - slide into or out of (from/to "nowhere")
 s   - legato slide
 S   - shift slide
 - natural harmonic
[n]  - artificial harmonic
n(n) - tapped harmonic
 ~   - vibrato
 tr  - trill
 T   - tap
 TP  - trem. picking
 PM  - palm muting
\n/  - tremolo bar dip; n = amount to dip
 \n  - tremolo bar down
 n/  - tremolo bar up
/n\  - tremolo bar inverted dip
 =   - hold bend; also acts as connecting device for hammers/pulls
 <> - volume swell (louder/softer)
 x   - on rhythm slash represents muted slash
 o   - on rhythm slash represents single note slash

Misc Legend
-----------
 |  - bar
||  - double bar
||o - repeat start
o|| - repeat end
*|  - double bar (ending)
 :  - bar (freetime)
 $  - Segno
 &  - Coda
Tempo markers -  = BPM(8/16=s8/s16), where s8 = swing 8ths, s16 = swing 16ths
comments
print report bad tab
12 comments total. Showing first comments.
0 reply
hairguitar 1,093 wrote on April 20 2009, 03:59 pm

sorry!!!
i scrued up the tuning
it should be form low to high CGCFAD not what i had CDCFAD

0 reply
demonducksaydie 88 wrote on August 19 2009, 11:27 am

this is an awesome song but the way you list your palm mutes is gay you should do it like this
------------------
------------------
------------------
------------------
-22---------------
-22---------------
xx
when working with power chords that way its easy to tell whats palm muted and whats not

0 reply
demonducksaydie 88 wrote on August 19 2009, 11:28 am

those x's are supposed to be under the 2's but it glitched got rid of my space but you get the point

I want to post or [tab]
guest
You may want to rate the tab now too:
select rating
Please do not post tabs as comments. Select "correction" instead!