Oops, an error
Loading. Please wait.

Guess Whos Won Tab

449 views 1 this week
no commentswrite comment
1 2 3 4 5
x 3
add to favorites
launch autoscroll
font size
0
reset
how to read this tab
guitar tuner
Autoscroll
slow
fast
+/-
esc
set tempo
stop
Help us to improve Ultimate-Guitar.com Take our survey!
×
Author
drop-D tuning

Here's the main riff, of the song:
----------------------------------------------------------------------------|
----------------------------------------------------------------------------|
----------------------------------------------------------------------------|
-----------------------3----------------------------------------------------|
--------3--5------3h5---------3h5--------3--5-----3--4--5-------------------|
----0--------0------------0----------0------------3--4--5---0---------------|

part of the way through the song,
Travis adds a little trill to the end of the riff:
----------------------------------------------------------------------------|
----------------------------------------------------------------------------|
----------------------------------------------------------------------------|
--------------------3----------------------------------------5p3---3--------|
-----3--5------3h5-----------3h5--------3--5------3--4--5--------5-----3h5--|
· 0--------0-------------0----------0---------0---3--4--5------------0------|
Suggest correction
Give kudos to tab author, rate the tab!
1 2 3 4 5
comments
print report bad tab
guest
You may want to rate the tab now too:
select rating
Wanna post a correction for this tab? Suggest correction