Oops, an error
Loading. Please wait.

Hypnotized Tab

version 1
version 1

Whole song

Interactive

9,926 views 6 this week
9 commentsread comments
1 2 3 4 5
x 7
add to favorites
launch autoscroll
font size
0
reset
how to read this tab
guitar tuner
Autoscroll
slow
fast
+/-
esc
set tempo
stop
Help us to improve Ultimate-Guitar.com Take our survey!
×
Author
-----------------------------------------------------------------------------
                             Hypnotized - Pillar
-----------------------------------------------------------------------------
Tabbed by: Max Andersen
e-mail: deckider@hotmail.com
Comments: I'm too lazy to organize the song into intro, verse, chorus, etc.
So I just write out all the parts and let you figure where it goes.

Tunning: Drop-C

riff 1
d|------------------------------------------------------------|
A|------------------------------------------------------------|
F|-----2--------0--------0-----0--------2--------0--------0---|
E|---0---0-0-3-----0---0-----3----3---0---0-0-3-----0---0-----|
B|-------------------3-----1--------------------------3-----1-|
C|-0--------------------------------0-------------------------|


riff 2
d|----------------------------------|
A|----------------------------------|
F|---------2-2---------0-0----------|
E|-0-0-0-0-----0-0-3-3-----3-3-0-0--|
B|----------------------------------|
C|----------------------------------|
   . . . . .   . . . . .   . . . .

riff 3
d|----------------------------------|
A|----------------------------------|
F|-0-0-----0-0---------0-0----------|
E|-----0-0-----0-0-3-3-----3-3-0-0--|
B|----------------------------------|
C|----------------------------------|
   . . . . .   . . . . .   . . . .

riff 4
d|----------------------------------|
A|---------------------1-1----------|
F|---------0-0-----3-3-----2-2------|
E|-0-0-0-0-----0-0-------------3-3--|
B|----------------------------------|
C|----------------------------------|
   . . . . .   . . . . .   . . . .

riff 5
d|------------|-----------| (i think maybe the base plays
A|------------|-----------|  the chords, the lead guitar
F|------------|-----------|  plays riff 6, and second guitar
E|-0----8---5-|-w/delay---|  plays the 2h3p2, that would sound
B|-0----8---5-|-(2h3p2)---|  a little lame if its played with no base) 
C|-0----8---5-|-----------|  

riff 6
d|-10---6---5------------|
A|-----------------------|
F|-----------------------|
E|-----------------------|
B|-----------------------|
C|-----------------------|

riff 7
d|-------------------------------------------------------------------|
A|-------------------------------------------------------------------|
F|-------------------------------------------------------------------|
E|-0-3-3-3-3-3-0-3-3-3-0-8-7-7-7-7-7-8-7-7-7-0-5-3-3-3-3-3-0-5-3-3-3-|
B|-0-----------0-------0-8-----------8-------0-5-----------0-5-------|
C|-0-----------0-------0-8-----------8-------0-5-----------0-5-------|

riff 8
d|-------------------------------|
A|-------------------------------|
F|-------------------------------|
E|---------3-3------10------8\5--|
B|------------------8-------8\5--|
C|-3-3-3-3-----0--8----8-8--8\5--|
   . . . .        .    . .

riff 9
d|------------------------------------|
A|------------------------------------|
F|---5-----5---5/7--------------------|
E|---5-----5---5/7----10-----10/12----|
B|--------------------8------8-/10----|
C|-3---3-3---3------8----8-8----------|
   .   . .   .      .    . . 

riff 10
d|-----|
A|-----|
F|-----|
E|-0---|
B|-0---|
C|-0---|

riff 11  w/ delay (after verse 1)
d|-------------|
A|-10--13------|
F|-7---10--9---|
E|-------------|
B|-------------|
C|-------------|

riff 12  w/ delay (after verse 2)
d|--------------------------|
A|-10--13-----10-13-13/15---|
F|-7---10--9--7--10-10/12---|
E|--------------------------|
B|--------------------------|
C|--------------------------|

riff 13
d|----------------------------------|
A|----------------------------------|
F|----------------------------------|
E|----------------------------------|
B|-------------7-7-8-8-8-8-7-7-7-7--|
C|-0-0-0-0-0-0----------------------|
   . . . . . . . . . . . . . . . .

riff 14
d|----------------------------------|
A|----------------------------------|
F|----------------------------------|
E|----------------------------------|
B|-------------7-7-8-8-0-0-7-7-7-7--|
C|-0-0-0-0-0-0----------------------|
   . . . . . . . . . . . . . . . . 

riff 15
d|----------------------------------|
A|----------------------------------|
F|----------------------------------|
E|---------------------7-0-5-5-5-5--|
B|-------------7-7-8-8--------------|
C|-0-0-0-0-0-0----------------------|
   . . . . . . . . . . . . 

riff 16
d|----------------------------------|
A|----------------------------------|
F|----------------------------------|
E|---------------------7-0-5-5-5-5--|
B|---------5-5-7-7-8-8--------------|
C|-0-0-0-0--------------------------|
   . . . .

riff 17
d|-----------------------------|
A|-----------------------------|
F|-----------------------------|
E|-0---------------------------|
B|-0--5-5-7-7-8-8-8-8-7-7-7-7--|
C|-0---------------------------|

riff 18
d|-----------------------------|
A|-----------------------------|
F|-----------------------------|
E|-0---------------------------|
B|-0--5-5-7-7-8-8-0-0-7-7-7-7--|
C|-0---------------------------|

riff 19
d|-----------------------------|
A|-----------------------------|
F|-----------------------------|
E|-0--------------7-0-5-5-5-5--|
B|-0--5-5-7-7-8-8--------------|
C|-0---------------------------|

riff 20
d|------------|
A|------------|
F|------------|
E|-8----3-----|
B|-6----3-----|
C|------3-----|

riff 21
d|-6-5--8-6-5-|
A|------------|
F|------------|
E|------------|
B|------------|
C|------------|

riff 22
d|--------------------------|
A|--------------------------|
F|--------------------------|
E|------------------5/-8\-0-|
B|---10-----7---7---5/-8\-0-|
C|-8----8-8---7---7-5/-8\-0-|
   .    . .   .   .

Thats all!!
=============================================================================
Suggest correction
comments
print report bad tab
9 comments total. Showing first comments.
0 reply
Schecter_tabber 10 Dec 28, 2005 11:33 AM

thanx for putting up a accurate tab, first i went to christian guitar.org but they suck at tabbing everything was all stupid, peace, and keep it up

0 reply
OneThing7 52 Feb 18, 2006 07:11 PM

.

0 reply
hepzibahbaptist 478 May 05, 2006 05:16 PM

i didnt know that
d
A
F
E
B
C
was drop tuning

guest
You may want to rate the tab now too:
select rating
Wanna post a correction for this tab? Suggest correction