Oops, an error
Loading. Please wait.

Indivisible Tab

version 1
version 1

Whole song

Interactive

2,062 views 1 this week
1 commentread comment
1 2 3 4 5
x 4
add to favorites
launch autoscroll
font size
0
reset
how to read this tab
guitar tuner
Autoscroll
slow
fast
+/-
esc
set tempo
stop
Help us to improve Ultimate-Guitar.com Take our survey!
×
Author
DROP D TUNING

KEY:
b= BEND NOTE
*= PALM MUTE

INTRO: USE DELAY (LISTEN TO CD FOR CORRECT TIMING)
PART A:                    PART B:
E-------------------------|----------------------|
B----------------10-------|----------------------|
G---7---9---10--------10--|----7---9---7---5---5-|   PLAY THIS 4 TIMES
D-7---7---7----7----7-----|--7---7---7---7---7---|
A-------------------------|----------------------|
D-------------------------|----------------------|

VERSE 1: SAME AS INTRO (4 TIMES)

PRECHORUS: DELAY
E------------------|
B---10-----10---11-|
G-7----7/8----8----|  PLAY THIS 3 TIMES
D------------------|
A------------------|
D------------------|

E------------------|
B---10-----10------|
G-7----7/8---------|
D--------------12\-|
A--------------12\-|
D--------------12\-|

CHORUS (USE DISTORTION)
E--------------------------------------------------------------|
B-----------------0--------0-----------------------------------|
G-----------------1--------1-----------------------------------|    4 TIMES (ON END OF 1ST CHORUS PLAY
D-0--7-0----0-0-0-0--0-0-0-0-------------             THIS: E--|  AND HOLD IT)
A-0--7-0----0-0-0----0-0-0---------------                   B--|
D-O--7-0-3b-0-0-0----0-0-0----0-0-2-0-3b-                   G--|
                                                            D-0-
                                                            A-0-
                                                            D-0-
VERSE 2: (USE DELAY)
E----------------------------------------------------------------------------|
B--------------10-------------------10---------------------------------------|
G--7--9--10-------10---7---9---10--------10----7---9---7---5---5---7---9---7-|
D-7--7--7---7----7----7---7---7----7----7-----7---7---7---7---7---7---7---7--|
A----------------------------------------------------------------------------|
D----------------------------------------------------------------------------|

E----------|
B----------|
G---5---5--|
D-7---7----|   PLAY THIS 2 TIMES
A----------|
D----------|

PLAY PRECHORUS AND CHORUS AGAIN

SOLO: (USE DISTORION)
E----------------------------------------------------------------------|
B----------------------------------------------------------------------|
G----------------------------------------------------------------------|
D-0-12\---------------------------------------2-0-0-0-2-0-0-0-0*-0*-0*-|
A-0-12\----------3/5---------3/5---------3/5--2-0-0-0-2-0-0-0-0*-0*-0*-|
D-0-12\--2-3-2-0-----2-3-2-0-----2-3-2-0------2-0-0-0-2-0-0-0-0*-0*-0*-|

E-------------------------------------------------------------------------|
B-------------------------------------------------------------------------|
G-------------------------------------------------------------------------|
D--------------------------------------2-0-0-0-2-0-0-0-2-0--0-2-0-0---12/-|
A---------3/5---------3/5---------3/5--2-0-0-0-2-0-0-0-2-0--0-2-0-0---12/-|
D-2-3-2-0-----2-3-2-0-----2-3-2-0------2-0-0-0-2-0-0-0-2-0--0-2-0-0---12/-|


PLAY THE CHORUS RIFF 5 TIMES, AND THEN END WITH THIS:

E------------------------|
B-----------------0------|
G-----------------1------|
D-0--7-0----0-0-0-0--0-0-|
A-0--7-0----0-0-0----0-0-|
D-0--7-0-3b-0-0-0----0-0-|

NOTE: AT THE END OF THE FIRST VERSE YOU PLAY PART B TWICE BEFORE GOING INTO
THE PRECHORUS.
Suggest correction
comments
print report bad tab
1 comment total.
0 reply
hepzibahbaptist 478 Sep 29, 2005 07:49 PM

pretty good man

guest
You may want to rate the tab now too:
select rating
Wanna post a correction for this tab? Suggest correction