Oops, an error
Loading. Please wait.

Let It Out Bass Tab

535 views 1 this week
no commentswrite comment
1 2 3 4 5
please rate
add to favorites
launch autoscroll
font size
0
reset
guitar tuner
Autoscroll
slow
fast
+/-
esc
set tempo
stop
Help us to improve Ultimate-Guitar.com Take our survey!
×
Author
Difficulty
novice
Drop D tuning (DADG)

Intro\verse
          2x then
G|------------|---------------------|
D|------------|---------------------|
A|--7--3--5---|-7--9----------------|
D|------------|---------------------|

Verse
                    3x then
G|----------------------|-----------|
D|----------------------|-----------|
A|--7-------------------|-----------|
D|---9-5—---2---4-------|--5--7-----|

1st Chorus  

G|----------------------------------------|
D|----------5-55-5555---------------------|
A|-777-7777------------777-7777-5-55-5555—|
D|----------------------------------------|

G|----------------------------------------|
D|----------5-55-5555---------------------|
A|-777-7777------------55555555-333333333-|
D|----------------------------------------|

Verse 
Chorus 2x

Bridge   5x

G|----------------------------------------|
D|----------------------------------------|
A|-333-33333-33333-7777-7777-7777-7777----|
D|----------------------------------------|

Chorus

Outro
G|--------------------------------|
D|--------------------------------|
A|-77-777-777-77-5-----------—5-3-|
D|--------------------------------|


Suggest correction
Give kudos to tab author, rate the tab!
1 2 3 4 5
comments
print report bad tab
guest
You may want to rate the tab now too:
select rating
Please do not post tabs as comments. Select "correction" instead!