Oops, an error
Loading. Please wait.

Let It Out Tab

1,068 views 1 this week
no commentswrite comment
1 2 3 4 5
please rate
add to favorites
launch autoscroll
font size
0
reset
how to read this tab
guitar tuner
Autoscroll
slow
fast
+/-
esc
set tempo
stop
Help us to improve Ultimate-Guitar.com Take our survey!
×
Contributor
Andrew Zara 3,565
Band- Pillar
Song- Let It Out

-0---0---0--0--2---0--0---0---0---0--0---0--0--2---0--0---0--3-|
-0---1---0--1--3---0--1---1---1---0--1---0--1--3---0--1---1--0-|
-0---0---0--0--2---0--0---2---2---0--0---0--0--2---0--0---2--0-|
-2---2---2--2--0---2--2---2---2---2--2---2--2--0---2--2---2--0-|
-2---3---2--3--X---2--3---0---0---2--3---2--3--X---2--3---0--2-|
-0---X---0--X--X---0--X---X---X---0--X---0--X--X---0--X---X--3-|
(Em)(C)(Em)(C)(D)(Em)(C)(Am)(Am)(Em)(C)(Em)(C)(D)(Em)(C)(Am)(G)

At 43 seconds-
POWER CHORDS
(p.m= palm mute or = palm mute)
(FAST)
(E) 0-Regular- //(wait)//
-X-
-X-
-X-
-X-
-2-
-0-
(C) 3-Inverted- \ / \ /
-X-
-X-
-X-
-5-
-3-
-X-
(E) 0-Regular- //(wait)//
                               (p.m)               (p.m)
Play notes only on top sting(6th sting)- 3rd fret (4x's) and 5th fret (2x's)

Then Play (Fast)
(D) 5-Inverted- /
(C) 3-Inverted- /

(E) 0-Regular- //(wait)//
(C) 3-Inverted- \ / \ /
(G) 3-Regular- //(wait)//
-X-
-X-
-X-
-X-
-5-
-3-

Than pretty fast
---------------|
---------------|
---------------|
----2----------|
-0-2-2-0-2-----|
---------------|

POWER CHORDS

(C) 3- Inverted- /
(D) 5- Inverted- /
(E) 7- Inverted- / (let ring out for very short time)

(Em)-(C)-(Em)-(C)-(D)-(Em)-(C)
(Em)-(C)-(D)-(Em)-(C)-(Am)-(G)

POWER CHORDS

(E) 0- Regular- //(wait)//
(C) 3- Inverted- \ / \ /
(E) 0- Regular- //(wait)//

                                         (p.m)               (p.m)
Play only on top sting(6th sting)- 3rd fret (4x's) and 5th fret (2x's)

Then (fairly quick)
(D) 5-Inverted- /
(C) 3-Inverted- /

(E) 0-Regular- //(wait)//
(C) 3-Inverted- \ / \ /
(G) 3-Regular- //(wait)//
-X-
-X-
-X-
-X-
-5-
-3-
Then A cool FAST part
---------------|
---------------|
---------------|
-----2---------|
-0-2---2-0-2---|
---------------|

(C) 3-Inverted- /
(D) 5-Inverted- /
(E) 7-Inverted- / (let it ring out for a very short time)
-X-
-X-
-X-
-9-
-7-
-X-

Then
(let it ring out)
(Em)-(C)-(Em)-(C)-(D)-(Em)-(C)
(Em)-(C)-(D)-(Em)-(C)-(Am)-(G)

POWER CHORDS
(E) 0-Regular- //(wait)//
(C) 3-Inverted- \ / \ /
(E) 0-Regular- //(wait)//
                               (p.m)           (p.m)
Then only on 6th string- 3rd fret (4x's) 5th fret (2x's)

Then (quickly)
(D) 5-Inverted- /
(C) 3-Inverted- /

(E) 0-Regular-//(wait)//
(C) 3-Inverted- \ / \ /
(G) 3-Regular- //(wait)//

(fast)
----------------------|
----------------------|
----------------------|
-----2----------------|
-0-2---2-0-2----------|
----------------------|

At 1:48-
             (for this part =5th sting only and palm muted)
(C) 3-Inverted- \\\ / \ //(2x's)
             (for this part =6th sting only and palm muted)
(E) 0-Regular- \\\ / \\ / (2x's)

(C) 3-Inverted- \\\ / \ // (2x's)

(E) 0-Regular- \\\ / \\ / (2x's)

Next part (=p.m only now) =)

(E) 0-Regular- //(wait)//

(C) 3-Inverted- \ / \ /

(E) 0-Regular- //(wait)//

Only on 6th string and p.m- 3rd fret (4x's) then 5th fret (2x's)
(Fast)
(D) 5-Inverted- /
(C) 3-Inverted- /

(E) 0-Regular- //(wait)//
(C) 3-Inverted- \ / \ /
(G) 3-Regular- //(wait)//
(quickly)
---------------|
---------------|
---------------|
-----2---------|
-0-2---2-0-2---|
---------------|

Then finally

At 2:47
POWER CHORDS
(///=faster for here only)
(E) 7-Inverted- /// / /// / /// / /// /
-X-
-X-
-X-
-9-
-7-
-X-

(D) 5-Inverted- /
-X-
-X-
-X-
-7-
-5-
-X-
(all of that 3x's then at the end after (D)
(C) 3-Inverted- / and hold this out till all is done)
comments
We did not receive enough feedback on this tab! Please rate:
print report bad tab
1 2 3 4 5
I want to post or [tab]
guest
You may want to rate the tab now too:
select rating
Please do not post tabs as comments. Select "correction" instead!