Oops, an error
Loading. Please wait.

Lose It All Tab

1,519 views 3 this week
1 commentread comment
1 2 3 4 5
please rate
add to favorites
launch autoscroll
font size
0
reset
how to read this tab
guitar tuner
Tab Pro tools
  • play this tab
  • loop segment
  • change instrument
  • show fretboard
  • metronome
×
Best way to learn
"Lose It All"
Autoscroll
slow
fast
+/-
esc
set tempo
stop
Contributor
Difficulty
Tuning
novice
C G C F A D
LOSE IT ALL
As recorded by Pillar
(From the 2009 Album CONFESSIONS)

Gtr I (C G C F A D) - 'VERY Slight Distortion'
Gtr II (C G C F A D) - 'Heavy Distortion'
Gtr III (C G C F A D) - 'Violin'
I LOVE THIS SONG, they have the guy who produces all the RED albums on this
 album, and it works out great.  Enjoy Tuning is drop C (Dropped D a full
 step Down)

INTRO
  Gtr I
|-------9---------9---------|-------2---------2---------|
|---7-----7---7-----7---7---|---0-----0---0-----0---0---|
|---------------------------|---------------------------|
|-0---0-----0---0-----0---0-|---------------------------|
|---------------------------|-2---2-----2---2-----2---2-|
|---------------------------|---------------------------|


|-------9---------9---------|-------2-------0-------|
|---7-----7---7-----7---7---|---0-----0-------------|
|---------------------------|-------------------2-2-|
|-0---0-----0---0-----0---0-|-----------------------|
|---------------------------|-2---2-----2-0---0-----|
|---------------------------|-----------------------|

This comes in the verse
  Gtr II
  PM--------------------------------------------------------------|
|---------------------------------|-----------------------------------|
|---------------------------------|-----------------------------------|
|---------------------------------|-----------------------------------|
|---------------------------------|-4-4-4-4-4-4-4-4-4-4-4-4-4-4-4-4---|
|-0-0-0-0-0-0-0-0-0-0-0-0-0-0-0-0-|-2-2-2-2-2-2-2-2-2-2-2-2-2-2-2-2---|
|-0-0-0-0-0-0-0-0-0-0-0-0-0-0-0-0-|-----------------------------------|

PRE-Chorus
  Gtr I
|-------2---------2---------|----------------------------|
|---0-----0---0-----0---0---|----------------------------|
|---------------------------|-------7---------7----------|
|---------------------------|---5-----5---5-----5---5----|
|-2---2-----2---2-----2---2-|----------------------------|
|---------------------------|-5---5-----5---5-----5---5--|


  Gtr II
Chorus if you LOOOSE it ALL
|---------------------------------|---------------------------------|
|---------------------------------|---------------------------------|
|---------------------------------|---------------------------------|
|-9-9-9-9-9-9-9-9-9-9-9-9-9-9-9-9-|-0-0-0-0-0-0-0-0-0-0-0-0-0-0-0-0-|
|-9-9-9-9-9-9-9-9-9-9-9-9-9-9-9-9-|-0-0-0-0-0-0-0-0-0-0-0-0-0-0-0-0-|
|-9-9-9-9-9-9-9-9-9-9-9-9-9-9-9-9-|-0-0-0-0-0-0-0-0-0-0-0-0-0-0-0-0-|


|---------------------------------|---------------------------------|
|---------------------------------|---------------------------------|
|---------------------------------|---------------------------------|
|-4-4-4-4-4-4-4-4-4-4-4-4-4-4-4-4-|-7-7-7-7-7-7-7-7-7-7-7-7-7-7-7-7-|
|-4-4-4-4-4-4-4-4-4-4-4-4-4-4-4-4-|-7-7-7-7-7-7-7-7-7-7-7-7-7-7-7-7-|
|-4-4-4-4-4-4-4-4-4-4-4-4-4-4-4-4-|-7-7-7-7-7-7-7-7-7-7-7-7-7-7-7-7-|


|---------------------------------|---------------------------------|
|---------------------------------|---------------------------------|
|---------------------------------|---------------------------------|
|-9-9-9-9-9-9-9-9-9-9-9-9-9-9-9-9-|-0-0-0-0-0-0-0-0-0-0-0-0-0-0-0-0-|
|-9-9-9-9-9-9-9-9-9-9-9-9-9-9-9-9-|-0-0-0-0-0-0-0-0-0-0-0-0-0-0-0-0-|
|-9-9-9-9-9-9-9-9-9-9-9-9-9-9-9-9-|-0-0-0-0-0-0-0-0-0-0-0-0-0-0-0-0-|


|---------------------------------|---------------------------------|
|---------------------------------|---------------------------------|
|---------------------------------|---------------------------------|
|-4-4-4-4-4-4-4-4-4-4-4-4-4-4-4-4-|-5-5-5-5-5-5-5-5-5-5-5-5-5-5-5-5-|
|-4-4-4-4-4-4-4-4-4-4-4-4-4-4-4-4-|-5-5-5-5-5-5-5-5-5-5-5-5-5-5-5-5-|
|-4-4-4-4-4-4-4-4-4-4-4-4-4-4-4-4-|-5-5-5-5-5-5-5-5-5-5-5-5-5-5-5-5-|

Play the verse and the chorus again

pre-Bridge
|------------------------------------|-------------------------------------|
|------------------------------------|-------------------------------------|
|------------------------------------|------------------------------7-(7)--|
|-11-11-11-x-x-11-11-11-x-x-11-9-(9)-|-11-11-11-x-x-11-11-11-x-x-11-7-(7)--|
|--9--9--9-x-x--9--9--9-x-x--9-7-(7)-|--9--9--9-x-x--9--9--9-x-x--9-5-(5)--|
|--9--9--9-x-x--9--9--9-x-x--9-7-(7)-|--9--9--9-x-x--9--9--9-x-x--9-5-(5)--|

Bridge
AND ALL THE VOICES CRY OUT
|-----------------|----------------------|
|-----------------|----------------------|
|-----------------|-------------------7--|
|-4-4-4-4-4-4-4-4-|-0-0-2h4-2-0-2-4-5-7--|
|-4-4-4-4-4-4-4-4-|-0-0-2h4-2-0-2-4-5-5--|
|-4-4-4-4-4-4-4-4-|-0-0-2h4-2-0-2-4-5----|


|------------------------------------|-------------------------------------|
|------------------------------------|-------------------------------------|
|------------------------------------|-------------------------------------|
|-11-11-11-x-x-11-11-11-x-x-11-9-(9)-|-11-11-11-x-x-11-11-11-x-x-11-9-(9)--|
|--9--9--9-x-x--9--9--9-x-x--9-7-(7)-|--9--9--9-x-x--9--9--9-x-x--9-7-(7)--|
|--9--9--9-x-x--9--9--9-x-x--9-7-(7)-|--9--9--9-x-x--9--9--9-x-x--9-7-(7)--|


|-----------------|-----------------|
|-----------------|-----------------|
|-----------------|-----------------|
|-5-5-5-5-5-5-5-5-|-7-7-7-7-7-7-7-7-|
|-5-5-5-5-5-5-5-5-|-5-5-5-5-7-7-7-7-|
|-5-5-5-5-5-5-5-5-|-4-4-4-4-7-7-7-7-|

VIOLIN
  Gtr III
I have just this one part because it sticks out and the rest is kind of 
hard to hear
|----------17----------17-------------|----------17----------17----------14----|
|-14-15-14----14-15-14----14-15-14----|-14-15-14----14-15-14----14-15-17-------|
|----------------------------------14-|----------------------------------------|
|-------------------------------------|----------------------------------------|
|-------------------------------------|----------------------------------------|
|-------------------------------------|----------------------------------------|


At then end play the chorus and then the pre-bridge thing 
along with the violin part
comments
We did not receive enough feedback on this tab! Please rate:
print report bad tab
1 2 3 4 5
1 comment total.
0 reply
Shevitar wrote on June 21 2013, 01:27 pm

Nice work :) thanks for sharing

I want to post or [tab]
guest
You may want to rate the tab now too:
select rating
Please do not post tabs as comments. Select "correction" instead!