Oops, an error
Loading. Please wait.

Resolution Tab

version 1
version 1

Whole song

Interactive

1,087 views 3 this week
no commentswrite comment
1 2 3 4 5
accurate
x 1
add to favorites
launch autoscroll
font size
0
reset
how to read this tab
guitar tuner
Tab Pro tools
  • play this tab
  • loop segment
  • change instrument
  • show fretboard
  • metronome
Autoscroll
slow
fast
+/-
esc
set tempo
stop
Difficulty
intermediate
----------------------------------------------------------------------------
			     RESOLUTION - Pillar
----------------------------------------------------------------------------
Tabbed by: Jordan Connor
Email: jlconnor@sbcglobal.net

Tuning: CGCFAD

Intro:
D|-------------------------------------------------------------------------|
A|-------------------------------------------------------------------------|
F|-------------------------------------------------------------------------|
C|-------------------------------------------------------------------------|
G|000005p00007p008p0003p0--------------------------------------------------|
C|-------------------------------------------------------------------------|
do this four times then,

D|-------------------------------------------------------------------------|
A|-------------------------------------------------------------------------|
F|-------------------------------------------------------------------------|
C|-------------------------------------------------------------------------|
G|----1012101010121010-----------------------------------------------------|
C|-------------------------------------------------------------------------|
      ______P.M_______
do the two parts above twice then go into the verse,


Verse:
D|-------------------------------------------------------------------------|
A|-------------------------------------------------------------------------|
F|-------------------------------------------------------------------------|
C|-----10---9/12-10---12p10------------10---9-9/12-12/14-------------------|
G|10h12--------------------12-----10h12---------------------12-------------|
C|-------------------------------------------------------------------------|
  _P.M_                           _P.M_


Background 2nd time through Verse (Had to split into 4 separate sections)
D|----------------------------|
A|----------------------------|
F|----------------------------|  Part 1       Background Summary:
C|-----------10-----------10--|                     Part 1
G|10101010h12--10101010h12----|                     Part 2
C|----------------------------|                     Part 1
  ____P.M____  ____P.M____                          Part 3
(palm mute notes above lines only)                  Part 1
                                                    Part 2
D|----------------------------|                     Part 1
A|----------------------------|                     Part 4
F|----------------------------|  Part 2
C|-----------12-----------12--|
G|10101010h12--10101010h12----|
C|----------------------------|
  ____P.M____  ____P.M____

D|----------------------------|
A|----------------------------|
F|----------------------------|  Part 3
C|-----------14-----------14--|
G|10101010h12--10101010h12----|
C|----------------------------|
  ____P.M____  ____P.M____

D|----------------------------------|
A|----------------------------------|
F|----------------------------------|  Part 4
C|-----------14-------14141414-5/7\0|
G|10101010h12--101010-12121212-5/7\0|
C|-----------------------------5/7\0|
  ____P.M____  __PM__       Quick Slide


Chorus (split into 7 parts) 

D|---------------------------------|
A|---------------------------------|
F|---------------------------------|  Part 1
C|10101010101010101010101010101010-|
G|7-7-7-7-7-7-7-7-7-7-7-7-7-7-7-7--|
C|7-7-7-7-7-7-7-7-7-7-7-7-7-7-7-7--|

D|---------------------------------|
A|---------------------------------|
F|---------------------------------|  Part 2  Chorus Summary:               
C|9999999999999999-----------------|              Part 1
G|5555555555555555-----------------|              Part 2
C|5555555555555555-----------------|              Part 3
                                                  Part 4
D|---------------------------------|              Part 1
A|---------------------------------|              Part 5
F|---------------------------------|  Part 3      Part 6
C|7777777777777777-----------------|              Part 7
G|3333333333333333-----------------|
C|3333333333333333-----------------|

D|---------------------------------|
A|---------------------------------|
F|---------------------------------|  Part 4
C|4444444444444444-----------------|
G|0000000000000000-----------------|
C|0000000000000000-----------------|

D|---------------------------------|
A|---------------------------------|
F|---------------------------------|  Part 5
C|14141414141414141212121212121212-|
G|9-9-9-9-9-9-9-9-9-9-9-9-9-9-9-9--|
C|9-9-9-9-9-9-9-9-9-9-9-9-9-9-9-9--|

D|---------------------------------|
A|---------------------------------|
F|---------------------------------|  Part 6
C|14141414141414141414141414141414-|
G|10101010101010101010101010101010-|
C|10101010101010101010101010101010-|
(slide down from the end of Part 6 to Part 7, sounds better)
D|---------------------------------|
A|---------------------------------|
F|---------------------------------|  Part 7
C|3-3-333-3-3----------------------|
G|3-3-333-3-3----------------------|
C|3-3-333-3-3----------------------|
      xxx
      PM^
Sorry guys! Don't know the Solo!
Sorry guys! Don't know the Bridge either!

Ending:
D|---------------------------------|
A|---------------------------------|
F|---------------------------------|
C|000-000-000**********************|
G|000-000-000**********************|
C|000-000-000**********************|
             _____Let fade out_____

			     Song Summary:
			       Intro x 2
			       Verse x 1
	 	 Verse w/ Background x 1
			      Chorus x 1
			       Verse x 1
                 Verse w/ Background x 1
			      Chorus x 1
				Solo x 1  sorry didn't get the solo
			      Bridge x ?  sorry didn't get the bridge
			      Chorus x 1
			      Ending x 1

| /  slide up
| \  slide down
| h  hammer-on
| p  pull-off
| PM or P.M  Mute note
============================================================================
comments
We did not receive enough feedback on this tab! Please rate:
print report bad tab
1 2 3 4 5
I want to post or [tab]
guest
You may want to rate the tab now too:
select rating
Please do not post tabs as comments. Select "correction" instead!