Oops, an error
Loading. Please wait.

Rewind Tab

version 1
version 1

Whole song

Interactive

3,357 views 1 this week
2 commentsread comments
1 2 3 4 5
x 5
add to favorites
launch autoscroll
font size
0
reset
how to read this tab
guitar tuner
Autoscroll
slow
fast
+/-
esc
set tempo
stop
Help us to improve Ultimate-Guitar.com Take our survey!
×
Band- Pillar
Song- Rewind

Guitar 1- Acoustic (Tuned one step down from standard: DGCFAD)
Guitar 2- Electric (Tuned to drop C: CGCFAD)

Key
Hammer-on = h
Palm Mute = PM

Verse
Guitar 1
|-0-----------3-----------0----------3-----3--|
|-0-----------3-----------0----------3-----3--|
|-2-----------0-----------0----------0-----0--|
|-2-----------2-----------2----------2-----0--|
|-0-----------3-----------2----------3-----2--|
|-------------------------0-------------------|

Guitar 2 (clean)
|--------------------------------------------------|
|-------0-----------3------------------------------|
|-----2---2-------0--0---------0---------0-----0---|
|---2-------2---2------2-----2--2------2-----0-----|
|-0-----------3------------2------2--3-----2-------|
|------------------------2-------------------------|

Chorus
Guitar 1
|-0-----3-----0-----3-----3--|
|-0-----3-----0-----3-----3--|
|-2-----0-----0-----0-----0--|
|-2-----2-----2-----0-----0--|
|-0-----3-----2-----2-----x--|
|-------------0-----3-----2--|

Guitar 2 (distorted)
|--------------------------------------------------------------------|
|--------------------------------------------------------------------|
|--------------------------------------------------------------------|
|-9--9----9--9----12--12----12--12-----0h2-2-2-0h2-2-2-7-7-7-4-4-4---|
|-7--7-00-7--7-00-10--10-00-10--10-00-0h2-2-2-0h2-2-2-5-5-5-5-5-5----|
|-7--7-00-7--7-00-10--10-00-10--10-00-0h2-2-2-0h2-2-2-5-5-5-5-5-5----|
PM       |--|         |--|             |--|              |-----------|

Last time through the chorus end with this instead of -----------^
|---
|---
|---
|-3-
|-3-
|-3-

Bridge
Guitar 1
|-0---1---0---4---0---1---3--|
|-0---1---0---4---0---1---3--|
|-0---1---0---6---0---1---0--|
|-2---3---2---6---2---3---0--|
|-2---3---2---4---2---3---2--|
|-0---1---0-------0---1---3--|

Guitar 2 (distorted)
|----------------------------------|
|----------------------------------|
|------------------------------7---|
|-2---3---2---1---2---3---5---7----|
|-2---3---2---1---2---3---5---5----|
|-2---3---2---1---2---3---5---5----|
Suggest correction
comments
print report bad tab
2 comments total.
0 reply
soadfreak1001 10 Sep 19, 2006 09:30 PM

dude this is awsome!!!

great job

-2 reply
joeadzhiyev(: 77 Jun 10, 2007 07:19 PM

dude you stole this from me to!!stop stealing my tabs you ultimate guitar poser!!!!!!!. god, andrew your so gay dude. get your own life and learn to live it. i can see why you would steal my tab seeing as you suck at guitar and all. but come on dude theres more to life then stealing my work and taking all the credit.me and my band(yes i said band cuz i actully have friends to play guitar with)are going to come up with a song singing about how gay you are. are you going to try and tab that too?but oh yeah, thats right,you suck. i forgot. but i am sure there will be tons of people tabbing that song and then you can copy and past them on and take credit for it as well.haha

stop stealing from mxtabs!.............fag.

guest
You may want to rate the tab now too:
select rating
Wanna post a correction for this tab? Suggest correction