Oops, an error
Loading. Please wait.

Rewind Tab

version 2
version 2

Whole song

Interactive

1,500 views 1 this week
1 commentread comment
1 2 3 4 5
2 more votes to show rating
add to favorites
launch autoscroll
font size
0
reset
how to read this tab
guitar tuner
Autoscroll
slow
fast
+/-
esc
set tempo
stop
Help us to improve Ultimate-Guitar.com Take our survey!
×
Author
Difficulty
Song: Rewind
Artist: Pillar
Album: Where Do We Go From Here
Tuning: Standard

Originally tabbed by Josh at Christianguitar.org
(High to Low)
E
B
G
D
A
E
Extras:
~ Strum (Hold chord)
X Don't play that string or a palm mute rest

You should put my tab of Rewind in your archives because I figured
out both guitar parts.  Plus, the other guitar tabs have the wrong
chords in the verse and I am 100% certain that my tab is accurate
and playable.  I also added the fill-in of guitar 2 played during
the verse.

Guitar 1:
Verse
E----6~~~~~~6~~~~~~5~~~~~~5~~~~~~5~~~~~~
B----8~~~~~~6~~~~~~6~~~~~~6~~~~~~5~~~~~~
G----7~~~~~~7~~~~~~7~~~~~~5~~~~~~5~~~~~~
D----5~~~~~~8~~~~~~7~~~~~~7~~~~~~5~~~~~~
A----X------8~~~~~~5~~~~~~8~~~~~~7~~~~~~
E----X------6~~~~~~5~~~~~~X------8~~~~~~

Guitar 2:
Verse
E-----------------------------------------------|
B-----------------------------------------------|
G----2----2-------------------------------------|
D------3----3---3----3-----3----3------3----2---|
A-----------------3----3-----7-----7-----3----3-|
E-----------------------------------------------|

Chorus
E------------------------------------------------------------|
B------------------------------------------------------------|
G------------------------------------------------------------|
D-------------------------------------------7-7X-7-7-777777--|
A----5-5X-5-5-555555---8-8X-8-8-888888------5-5X-5-5-555555--|
E----3-3X-3-3-333333---6-6X-6-6-666666------X-XX-X-X-XXXXXX--|

E---------------------------|
B---------------------------|
G---------------------------|
D-10-10X-10-----------------|
A-8--8X--8--10-101010101010-|
E-X--XX--X--8--8-8-8-8-8-8--|

Bridge
The bridge is the same chords as the chorus, except played in
a different strum pattern.  If you play with the CD you can
figure it out.
Suggest correction
Give kudos to tab author, rate the tab!
1 2 3 4 5
comments
print report bad tab
1 comment total.
0 reply
dranstheman 746 Nov 28, 2011 07:20 PM

pretty good tab, I found it easier to put Capo on 5 fret for guitar 1. Then the verse chords are much easier (Dm F Am C G6)

guest
You may want to rate the tab now too:
select rating
Wanna post a correction for this tab? Suggest correction