Oops, an error
Loading. Please wait.

Tayoy Magsaya bass

by Pillar
116 views 1 this week
no commentswrite comment
1 2 3 4 5
3 more votes to show rating
add to favorites
×
Save as Personal and add changes to this tab that will be seen only by you. Learn more ›
×
You can save this tab as Personal to edit and correct it or add notes. All changes will be seen only by you. Learn more »
launch autoscroll
font size
0
reset
guitar tuner
edit
Autoscroll
slow
fast
+/-
esc
set tempo
stop
Author
Difficulty
Song Title: Tayoy Magsaya
Band Name: Pilars (Christian)
Tab By: Michael Labalan (MCC Baguio City)
        Jopardz_45@yahoo.com (YM and FB)
Tuning: Standard
	EADG

Intro: 4x
G|------------|-7-5-4--------|-4-5-7----------|-------------------|
D|------------|--0-0---------|----------------|-------------------|
A|-55---------|--------------|----------------|-------------------|
E|------------|--------------|----------------|-------------------|

G|-----7--44------|--------------|----------------|-------------------|
D|-----------5/---|--------------|----------------|-------------------|
A|-55-------------|--------------|----------------|-------------------|
E|----------------|--------------|----------------|-------------------|

Sabay pasok sa verse 1 Ganun din sa Verse 2

G|------------|--------------|----------------|----------------------|
D|------------|--------------|----------------|----------------------|
A|--5---------|--------------|----------------|----------------------|
E|------------|--33-----------|----------------|---------------------|


Refrain: 2X
G|------------|--------------|----------------|-------------------|
D|------------|--------------|----------------|-------------------|
A|------------|--------------|----------------|-------------------|
E|-2x8-----------|-3x8-------|----------------|-------------------|


Chamba lang na kappa  ko lang
kulang pa ito dagdagan ko pa ito ng version 1
Leave some comment para  malaman ko kung tama ito
I rate nyo na rin po salamat
Suggest correction
Creating personal tab
Creating personal tab
You can edit any tab online and save it as your Personal.

You can edit, replace or remove any tab part or add personal notes – all changes will be seen only by you.

Personal tabs can be accessed anytime from any device, even offline.
Learn more »
Give kudos to tab author, rate the tab!
1 2 3 4 5
comments
print report bad tab
guest
You may want to rate the tab now too:
select rating
Wanna post a correction for this tab? Suggest correction