Oops, an error
Loading. Please wait.

Turn It Up bass

version 1
version 1

Whole song

by Pillar
1,672 views 18 this week
1 commentread comment
1 2 3 4 5
1 last vote to show rating
add to favorites
×
Save as Personal and add changes to this tab that will be seen only by you. Learn more ›
×
You can save this tab as Personal to edit and correct it or add notes. All changes will be seen only by you. Learn more »
launch autoscroll
font size
0
reset
guitar tuner
edit
Autoscroll
slow
fast
+/-
esc
set tempo
stop
Difficulty
intermediate
Verse
G-----------------------------------|      12 times
D--------3h5----3h5--3h5------------|
A-----------------------------------|
E----3-3----3-3-----3---------------|

Pre Chorus
A#	F	G	A#	C

Chorus
G-------------------------------------|
D-------------------------------------|
A-------------------------------------|
E-----3/----6---6---6---1---1---1-----|

G-------------------------------------|
D-------------------------------------|
A-------------------------------------|
E---3--3--1h3--3--6--6--6--1--1--1----|

Verse

Pre-Chorus

Chorus
G-------------------------------------|
D-------------------------------------|
A-------------------------------------|
E-----3/----6---6---6---1---1---1-----|

G-------------------------------------|     3 times
D-------------------------------------|
A-------------------------------------|
E---3--3--1h3--1--6--6--6--1--1--1----|

Bridge
G-------------------------------------|
D-------------------------------------|
A-------------------------------------|
E---3--3--4--1---(x7)---3--3--4--6----|

G-------------------------------------|
D-------------------------------------|
A-------------------------------------|
E---3--3--4--1---(x3)---3--3--4--6----|

When Going Back Into Chorus after Bridge
G-------------------------------------|
D-------------------------------------|
A-------------------------------------|
E---3/------3/------------------------|

Chorus


Thanks .. this is my first tabbing so its not 100% accurate. Done really quickly :P
A bit of improvisation in a few bits throughout the song, but this is just the structure.
Suggest correction
Creating personal tab
Creating personal tab
You can edit any tab online and save it as your Personal.

You can edit, replace or remove any tab part or add personal notes – all changes will be seen only by you.

Personal tabs can be accessed anytime from any device, even offline.
Learn more »
Give kudos to tab author, rate the tab!
1 2 3 4 5
comments
print report bad tab
1 comment total.
0 reply
SK8nBASS 1,851 Nov 04, 2009 03:46 PM

Pretty good! Get a good enough idea

guest
Wanna post a correction for this tab? Suggest correction