Oops, an error
Loading. Please wait.

Turn It Up bass

version 2
version 2

Whole song

by Pillar
898 views 1 this week
no commentswrite comment
1 2 3 4 5
1 last vote to show rating
add to favorites
×
Save as Personal and add changes to this tab that will be seen only by you. Learn more ›
×
You can save this tab as Personal to edit and correct it or add notes. All changes will be seen only by you. Learn more »
launch autoscroll
font size
0
reset
guitar tuner
edit
Autoscroll
slow
fast
+/-
esc
set tempo
stop
-------------------------------------------------------------------------------
			     SONG NAME - Band Name
-------------------------------------------------------------------------------

Tabbed By : Lovemonky2
e-mail: No need

Tuning:Drop C
Intro/Verse Riff just play this for the entire intro and verse parts just repeat as needed
F|----------------------------------------------|
C|--------------h--------------h---------h------|
G|---0-0-12-0-10-12-0-12-0-0-10-12-0-0-10-12----|
C|----------------------------------------------|

F|-------------------------------------h------|
C|-------------h--------------h------10-12----|
G|--0-0-12-0-10-12-0-12-0-0-10-12-0-0---------|
C|--------------------------------------------|

F|----------------------------------------------|
C|--------------h--------------h---------h------|
G|---0-0-12-0-10-12-0-12-0-0-10-12-0-0-10-12----|
C|----------------------------------------------|

F|--------------------------------------------|
C|-------------h--------------h------10-------|
G|--0-0-12-0-10-12-0-12-0-0-10-12-0-0---------|reapeat for entire verse
C|--------------------------------------------|

im going to just put up the chorus from the first tab so that guys get all the cred for 
just thought id fix the verse and intro part.

Pre Chorus
A#	F	G	A#	C

Chorus
G-------------------------------------|
D-------------------------------------|
A-------------------------------------|
E-----3/----6---6---6---1---1---1-----|

G-------------------------------------|     3 times
D-------------------------------------|
A-------------------------------------|
E---3--3--1h3--1--6--6--6--1--1--1----|

Bridge
G-------------------------------------|
D-------------------------------------|
A-------------------------------------|
E---3--3--4--1---(x7)---3--3--4--6----|

G-------------------------------------|
D-------------------------------------|
A-------------------------------------|
E---3--3--4--1---(x3)---3--3--4--6----|

When Going Back Into Chorus after Bridge
G-------------------------------------|
D-------------------------------------|
A-------------------------------------|
E---3/------3/------------------------|


| /  slide up
| \  slide down
| h  hammer-on
| p  pull-off
| ~  vibrato
| +  harmonic
| x  Mute note
==========================================================================

Feel free to rate and compare it to the original one

            
            
Suggest correction
Creating personal tab
Creating personal tab
You can edit any tab online and save it as your Personal.

You can edit, replace or remove any tab part or add personal notes – all changes will be seen only by you.

Personal tabs can be accessed anytime from any device, even offline.
Learn more »
Give kudos to tab author, rate the tab!
1 2 3 4 5
comments
print report bad tab
guest
Wanna post a correction for this tab? Suggest correction