Oops, an error
Loading. Please wait.

Back Seat Dog bass

by Pillows
1,016 views 3 this week
2 commentsread comments
1 2 3 4 5
1 last vote to show rating
add to favorites
×
Save as Personal and add changes to this tab that will be seen only by you. Learn more ›
×
You can save this tab as Personal to edit and correct it or add notes. All changes will be seen only by you. Learn more »
launch autoscroll
font size
0
reset
guitar tuner
edit
Autoscroll
slow
fast
+/-
esc
set tempo
stop
Back Seat Dog
The Pillows
sinophilic

(00:00) - intro
 |1 + 2 + 3 + 4 +|1 + 2 + 3 + 4 +|1 + 2 + 3 + 4 +|1 + 2 + 3 + 4 +|
G----------------|---------------|---------------|---------------|
D---------4-5-6-7|---------------|---------------|---------------|
A-5-----5--------|-4----4-4-5-7--|2-----2-----2-5|---------------| (2x)
E----------------|---------------|----------5----|3-----3-5-0-3-5|
                                                  b
(00:14) - Verse 1
 |1 + 2 + 3 + 4 +|1 + 2 + 3 + 4 +|1 + 2 + 3 + 4 +|1 + 2 + 3 + 4 +|
G----------------|---------------|---------------|---------------|
D----------------|---------------|---------------|---------------|
A-5-----5---5---5|------------4--|2-----2---2---2|---------------|
E----------------|5-----5---5---5|------------2--|3-----3-5-0-3-5|
 |1 + 2 + 3 + 4 +|1 + 2 + 3 + 4 +|1 + 2 + 3 + 4 +|1 + 2 + 3 + 4 +|
G----------------|---------------|---------------|---------------|
D---------4-5-6-7|---------------|---------------|---------------|
A-5-----5--------|-4----4-4-5-7--|2-----2-----2-5|---------------| (2x)
E----------------|---------------|----------5----|3-----3-5-0-3-5|
(00:43) - pre chorus
 |1 + 2 + 3 + 4 +|1 + 2 + 3 + 4 +|1 + 2 + 3 + 4 +|1 + 2 + 3 + 4 +|
G----------------|---------------|---------------|---------------|
D----------------|---------------|---------------|---------------|
A----------------|---------------|---------------|5--------------|
E-2--------------|3--------------|5--------------|--------5------|
(00:51) - chorus
 |1 + 2 + 3 + 4 +|1 + 2 + 3 + 4 +|1 + 2 + 3 + 4 +|1 + 2 + 3 + 4 +|
G----------------|---------------|---------------|---------------|
D----------------|---------------|---------------|---------------|
A-----2-------4-7|5-----5--------|----2-------4-7|5-----5--------|
E-3-3---3-5-5----|--------2-2-3-5|3-3---3-5-5----|--------2-2-3-5|

 |1 + 2 + 3 + 4 +|1 + 2 + 3 + 4 +|1 + 2 + 3 + 4 +|1 + 2 + 3 + 4 +|
G----------------|---------------|---------------|---------------|
D----------------|--------7-5-4--|---------------|--------2-2-2-2|
A-----2-------4-7|5-----5-------7|2-2-2-2-2-2-2-2|5-5-5-5--------|
E-3-3---3-5-5----|---------------|---------------|---------------|
(01:05) - bridge
 |1 + 2 + 3 + 4 +|1 + 2 + 3 + 4 +|1 + 2 + 3 + 4 +|1 + 2 + 3 + 4 +|
G----------------|---------------|---------------|---------------|
D---------4-5-6-7|---------------|---------------|---------------|
A-5-5---5--------|-4----4-4-5-7--|2-----2-----2-5|---------------|
E----------------|---------------|----------5----|3-----3-5-0-3-5|
 |1 + 2 + 3 + 4 +|1 + 2 + 3 + 4 +|1 + 2 + 3 + 4 +|1 + 2 + 3 + 4 +|
G----------------|---------------|---------------|---------------|
D---------4-5-6-7|---------------|--------------4|5-----4-5------|
A-5-----5--------|-4----4-4-5-7--|2-----2-----2--|---------------|
E----------------|---------------|----------5----|----------5-7-4|
(01:20) - verse 2
 |1 + 2 + 3 + 4 +|1 + 2 + 3 + 4 +|1 + 2 + 3 + 4 +|1 + 2 + 3 + 4 +|
G----------------|---------------|---------------|---------------|
D----------------|---------------|---------------|---------------|
A-5-----5---5---5|------------4--|2-----2---2---2|---------------|
E----------------|5-----5---5---5|------------2--|3-----3-5-0-3-5|
 |1 + 2 + 3 + 4 +|1 + 2 + 3 + 4 +|1 + 2 + 3 + 4 +|1 + 2 + 3 + 4 +|
G----------------|---------------|---------------|---------------|
D---------4-5-6-7|---------------|---------------|---------------|
A-5-----5--------|-4----4-4-5-7--|2-----2-----2-5|---------------| (2x)
E----------------|---------------|----------5----|3-----3-5-0-3-5|
(01:48) - pre chorus
 |1 + 2 + 3 + 4 +|1 + 2 + 3 + 4 +|1 + 2 + 3 + 4 +|1 + 2 + 3 + 4 +|
G----------------|---------------|---------------|---------------|
D----------------|---------------|---------------|---------------|
A----------------|---------------|---------------|5--------------|
E-2--------------|3--------------|5--------------|--------5------|
(01:56) - chorus
 |1 + 2 + 3 + 4 +|1 + 2 + 3 + 4 +|1 + 2 + 3 + 4 +|1 + 2 + 3 + 4 +|
G----------------|---------------|---------------|---------------|
D----------------|---------------|---------------|---------------|
A-----2-------4-7|5-----5--------|----2-------4-7|5-----5--------|
E-3-3---3-5-5----|--------2-2-3-5|3-3---3-5-5----|--------2-2-3-5|

 |1 + 2 + 3 + 4 +|1 + 2 + 3 + 4 +|1 + 2 + 3 + 4 +|1 + 2 + 3 + 4 +|
G----------------|---------------|---------------|---------------|
D----------------|--------7-5-4--|---------------|--------2-2-2-2|
A-----2-------4-7|5-----5-------7|2-2-2-2-2-2-2-2|5-5-5-5--------|
E-3-3---3-5-5----|---------------|---------------|---------------|
(02:10) - guitar solo
 |1 + 2 + 3 + 4 +|1 + 2 + 3 + 4 +|1 + 2 + 3 + 4 +|1 + 2 + 3 + 4 +|
G----------------|---------------|---------------|---------------|
D---------4-5-6-7|---------------|---------------|---------------|
A-5-----5--------|-4----4-4-5-7--|2-----2-----2-5|---------------|
E----------------|---------------|----------5----|3-----3-5-0-3-5|
 |1 + 2 + 3 + 4 +|1 + 2 + 3 + 4 +|1 + 2 + 3 + 4 +|1 + 2 + 3 + 4 +|
G----------------|---------------|---------------|---------------|
D----------------|---------------|---------------|5-5-4-4->------|   > = 2h4h2 (didnt want to
A-5-----5-----5-4|--------4-7-7--|2-----2-----2-5|---------------|              ruin beats)
E---------5-5----|5-----5--------|----------5----|------------5-0|
 |1 + 2 + 3 + 4 +|1 + 2 + 3 + 4 +|1 + 2 + 3 + 4 +|1 + 2 + 3 + 4 +|
G----------------|---------------|---------------|---------------|
D---------4-5-6-7|---------------|---------------|---------------|
A-5-----5--------|-4----4-4-5-7--|2-----2-----2-5|---------------|
E----------------|---------------|----------5----|3-----3-5-0-3-5|
 |1 + 2 + 3 + 4 +|1 + 2 + 3 + 4 +|1 + 2 + 3 + 4 +|1 + 2 + 3 + 4 +|
G----------------|---------------|---------------|---------------|
D----------------|---------------|---------------|5-5-4-4->------|   > = 2h4h2 
A-5-----5-----5-4|--------4-7-7--|2-----2-----2-5|---------------|              
E---------5-5----|5-----5--------|----------5----|------------5-0|
(02:39) - pre chorus
 |1 + 2 + 3 + 4 +|1 + 2 + 3 + 4 +|1 + 2 + 3 + 4 +|1 + 2 + 3 + 4 +|
G----------------|---------------|---------------|---------------|
D----------------|---------------|---------------|---------------|
A----------------|---------------|---------------|5--------------|
E-2--------------|3--------------|5--------------|--------5------|
(02:47) - chorus
 |1 + 2 + 3 + 4 +|1 + 2 + 3 + 4 +|1 + 2 + 3 + 4 +|1 + 2 + 3 + 4 +|
G----------------|---------------|---------------|---------------|
D----------------|---------------|---------------|---------------|
A-----2-------4-7|5-----5--------|----2-------4-7|5-----5--------|
E-3-3---3-5-5----|--------2-2-3-5|3-3---3-5-5----|--------2-2-3-5|
 |1 + 2 + 3 + 4 +|1 + 2 + 3 + 4 +|1 + 2 + 3 + 4 +|1 + 2 + 3 + 4 +|
G----------------|---------------|---------------|---------------|
D----------------|--------7-5-4--|---------------|--------2-2-2-2|
A-----2-------4-7|5-----5-------7|2-2-2-2-2-2-2-2|5-5-5-5--------|
E-3-3---3-5-5----|---------------|---------------|---------------|
(03:01) - chorus
 |1 + 2 + 3 + 4 +|1 + 2 + 3 + 4 +|1 + 2 + 3 + 4 +|1 + 2 + 3 + 4 +|
G----------------|---------------|---------------|---------------|
D----------------|---------------|---------------|---------------|
A-----2-------4-7|5-----5--------|----2-------4-7|5-----5--------|
E-3-3---3-5-5----|--------2-2-3-5|3-3---3-5-5----|--------2-2-3-5|
 |1 + 2 + 3 + 4 +|1 + 2 + 3 + 4 +|1 + 2 + 3 + 4 +|1 + 2 + 3 + 4 +|
G----------------|---------------|---------------|---------------|
D----------------|--------7-5-4--|---------------|----------5---4|
A-----2-------4-7|5-----5-------7|----2-------4-7|5-5-5-5--------|
E-3-3---3-5-5----|---------------|3-3---3-5-5----|--------3---2--|
(03:15) - outro (slow fade)
 |1 + 2 + 3 + 4 +|1 + 2 + 3 + 4 +|1 + 2 + 3 + 4 +|1 + 2 + 3 + 4 +|
G----------------|---------------|---------------|---------------|
D----------------|---------------|---------------|---------------|
A-----2-------4-7|5-----5--------|----2-------4-7|5-----5--------|
E-3-3---3-5-5----|--------2-2-3-5|3-3---3-5-5----|--------2-2-3-5|
 |1 + 2 + 3 + 4 +|1 + 2 + 3 + 4 +|1 + 2 + 3 + 4 +|1 + 2 + 3 + 4 +|
G----------------|---------------|---------------|---------------|
D----------------|---------------|---------------|--------7-5-3--|
A-----2-------4-7|5-----5--------|----2-------4-7|5-----5-------7|
E-3-3---3-5-5----|--------2-2-3-5|3-3---3-5-5----|---------------|
(03:30) - outro (continued more fading)
 |1 + 2 + 3 + 4 +|1 + 2 + 3 + 4 +|1 + 2 + 3 + 4 +|1 + 2 + 3 + 4 +|
G----------------|---------------|---------------|---------------|
D----------------|--------4---5--|---------------|----4---5---4--|
A-----2-------4-7|5--------------|----2-------4-7|5--------------|
E-3-3---3-5-5----|---------------|3-3---3-5-5----|---------------|
 |1 + 2 + 3 + 4 +|1 + 2 + 3 + 4 +|1 + 2 + 3 + 4 +|1 + 2 + 3 + 4 +|
G----------------|---------------|---------------|---------------|
D----------------|--------4---5--|---------------|--------5-4----|
A-----2-------4-7|5--------------|----2-------4-7|5-----------7-5|
E-3-3---3-5-5----|---------------|3-3---3-5-5----|---------------|
 |1 + 2 + 3 + 4 +|1 + 2 + 3 + 4 +|1 + 2 + 3 + 4 +|1 + 2 + 3 + 4 +|
G----------------|---------------|---------------|---------------|
D----------------|--------4---5--|---------------|----4---5---4--|
A-----2-------4-7|5--------------|----2-------4-7|5--------------|
E-3-3---3-5-5----|---------------|3-3---3-5-5----|---------------|...silence

notes: its about 94% right, the end of the chorus i cant figure out, you can 
improvise on the prechorus if you want. The last measure of each verse i didnt get exactly,
but if you play it with the song most of it slides. If somone could correct the tab for
the last line of the verse, it would be greatly appreciated.
Suggest correction
Creating personal tab
Creating personal tab
You can edit any tab online and save it as your Personal.

You can edit, replace or remove any tab part or add personal notes – all changes will be seen only by you.

Personal tabs can be accessed anytime from any device, even offline.
Learn more »
Give kudos to tab author, rate the tab!
1 2 3 4 5
comments
print report bad tab
2 comments total.
0 reply
Beelzers 83 Sep 05, 2013 07:56 PM

Great Tab!! Now a complete cover for my band :D

0 reply
Raidajeff 21 Jun 12, 2015 01:29 PM

The Intro isn't correct. It should be

(00:00) - intro
|1 + 2 + 3 + 4 +|1 + 2 + 3 + 4 +|1 + 2 + 3 + 4 +|1 + 2 + 3 + 4 +|
G----------------|---------------|---------------|---------------|
D---------4-5-6-7|---------------|---------------|---------------|
A-5-----5--------|----------5-7--|2-----2-----2-5|---------------| (2x)
E----------------|-5----5-5------|----------5----|3-----3-5-0-3-5|

guest
You may want to rate the tab now too:
select rating
Wanna post a correction for this tab? Suggest correction