Oops, an error
Loading. Please wait.

Beautiful Morning With You tab

version 2
version 2

Whole song

Interactive

by Pillows
25,160 views 36 this week
10 commentsread comments
1 2 3 4 5
x 16
add to favorites
×
Save as Personal and add changes to this tab that will be seen only by you. Learn more ›
×
You can save this tab as Personal to edit and correct it or add notes. All changes will be seen only by you. Learn more »
launch autoscroll
font size
0
reset
how to read this tab
guitar tuner
edit
Autoscroll
slow
fast
+/-
esc
set tempo
stop
Author
I checked out the first version and the intro was all wrong so I made
this righter version

Into
E|-----------|-----------|-----------|-----------|        
B|-----------|-----------|-----------|-----------|          
G|-----------|-----------|-----------|-----------|        
D|-4--4------|-7--7------|--2--2-----|---4--4----|2x then 
A|-5--5------|-4--4------|--2--2-----|---5--5----|        
E|-----------|-5--5------|--4--4-----|---3--3----|        

E|-----------|-----------|-----------|-----------|
B|-----------|-----------|-----------|-----------|
G|-----------|-----------|-----------|-----------|
D|-4--4------|-7--7------|-5-5-5-5---|-5-5-5-5---|
A|-5--5------|-4--4------|-5-5-5-5---|-5-5-5-5---|
E|-----------|-5--5------|-3-3-3-3---|-3-3-3-3---|

Ringing pretty part ()=harmonic
E|-(12)------|----------|-----------------------|
B|-----(7)---|----------|-----------------------|
G|--------(7)|----------|-----------------------|
D|-----------|----------|-----------------------|
A|-----------|-11b12----|--(12)--(12)-(12)-(12)-|
E|-----------|----------|(7)---(7)---(7)--(7)---|

  Electrified part
E|-----------|----------|-----------|-----------|
B|-----------|----------|-----------|-----------|
G|-----------|----------|-----------|-----------|
D|-4--5/9--7-|-4/5-5-5--|-5-5-5-5---|-reapeat 3x|
A|-5--5/9--7-|-4/5-5-5--|-5-5-5-5---|-----------|
E|-3--3/7--5-|-2/3-3-3--|-3-3-3-3---|-----------|
                                                       Bend thing
E|-----------|------------|-----------|-----------| |--9b10-9b10-9b10-9b10-|
B|-----------|------------|-----------|-----------| |--9b10-9b10-9b10-9b10-|
G|-----------|------------|-----------|-----------| |----------------------|
D|-5/7---4-5-|-5-5/7--4-5-|-5-5/7-7-7-|-7-7-7-7\--| |----------------------|
A|-5/7---4-5-|-5-5/7--4-5-|-5-5/7-7-7-|-7-7-7-7\--| |----------------------|
E|-3/5---2-3-|-3-3/5--2-3-|-3-3/5-5-5-|-5-5-5-5\--| |----------------------|

  Electricfied open chords
E|-3-3--3-3-3-3-|-2-2--2-2-2-2-|-0-0--0-0-0-0-|-2-2--2-2-2-2-|
B|-3-3--3-3-3-3-|-3-3--3-3-3-3-|-0-0--0-0-0-0-|-3-3--3-3-3-3-|
G|-0-0--0-0-0-0-|-2-2--2-2-2-2-|-0-0--0-0-0-0-|-2-2--2-2-2-2-|
D|-0-0--0-0-0-0-|-0-0--0-0-0-0-|-2-2--2-2-2-2-|-0-0--0-0-0-0-|
A|-2-2--2-2-2-2-|--------------|-2-2--2-2-2-2-|--------------|
E|-3-3--3-3-3-3-|--------------|--------------|--------------|

            
            
Suggest correction
Creating personal tab
Creating personal tab
You can edit any tab online and save it as your Personal.

You can edit, replace or remove any tab part or add personal notes – all changes will be seen only by you.

Personal tabs can be accessed anytime from any device, even offline.
Learn more »
comments
print report bad tab
10 comments total. Showing first comments.
+4 reply
Kenshin3516 20 Jul 26, 2005 08:00 PM

awesome tab! but the third chord in the intro should be this
E|----------|
B|----------|
G|----------|
D|-4--4-----|
A|-4--4-----|
E|-2--2-----|

+1 reply
FoolOnThePlanet 280 Sep 10, 2006 01:20 PM

e|--------------------------|
B|--------------------------|
G|--------------------------|
D|-4-4----7-7----4-4----4-4-|
A|-5-5----4-4----4-4----5-5-|
E|-5-5----5-5----2-2----3-3-|

0 reply
Cloud IGDF 31 Dec 22, 2006 07:41 PM

0-| That chord sounds kinda wrong, I don't know, it just does to me, but besides that, the rest is right.
0-|
0-|
2-|
2-|
--|

guest
You may want to rate the tab now too:
select rating
Wanna post a correction for this tab? Suggest correction