Oops, an error
Loading. Please wait.

Carnival Tab

version 1
version 1

Whole song

Interactive

by Pillows
40,994 views 27 this week
2 commentsread comments
1 2 3 4 5
x 16
add to favorites
×
Save as Personal and add changes to this tab that will be seen only by you. Learn more ›
×
You can save this tab as Personal to edit and correct it or add notes. All changes will be seen only by you. Learn more »
save as personal
new!
launch autoscroll
font size
0
reset
how to read this tab
guitar tuner
Autoscroll
slow
fast
+/-
esc
set tempo
stop
(Guitar 1 or 2)
[Intro]
e|-------------------------------------------------|
B|-------------------------------------------------|
G|-------------------------------------------------|
D|-9-9-9-9-9--7/10--12\----------------------------|
A|-7-7-7-7-7--5/8---10\---7/10--9/12\9--7\5/7\5----|
E|------------------------5/8---7/10\7--5\3/5\3----| (x6)
                                                     
(Guitar 1)                                                     
   Bridge ...I guess (figure it out/listen to song)                          
e|---|---|---|---|---|---|---|
B|---|---|---|---|---|---|---|
G|-5-|---|-7-|-5-|-5-|---|-7-|
D|-5-|-5-|-7-|-5-|-5-|-5-|-7-|
A|-3-|-5-|-5-|-3-|-3-|-5-|-5-|
E|---|-3-|---|---|---|-3-|---|
  (x8)(x8)(x8)(x8)(x8)(x8)(x8)
          
(Guitar 2)
(lead guitar)                                                    
[Bridge]
e|-----------------------|------------------------|-----------------------|
B|-----------------------|------------------------|-----------------------|
G|-----------------------|------------------------|-----------------------|
D|-9----10----12----9-10-|----12----9----10----12-|----9----10----12-9-10-|
A|---10----10----10------|-10----10---10----10----|-10---10----10---------|
E|-----------------------|------------------------|-----------------------| (x2) 
   and this...
e|------------------------|
B|------------------------|
G|------------------------|
D|----12----10----9----10-|
A|-10----10----10---10----|
E|------------------------|

(Guitar 1)
(Funky Part)
e|------|
B|------|
G|------|
D|-7----|
A|-7----|
E|-5----|
  PM(x28)

(Guitar 2)
(Funky Part)
e|---------------------------------------------------------------|
B|---------------------------------------------------------------|
G|---------------------------------------------------------------|
D|----------------------------0-0-0-0----------------------------|
A|----------3-3-3-3--2-2-2-2-----------3-3-3-3-----------3-3-3-3-|
E|-5-5-5-5--------------------------------------5-5-5-5--5-5-5-5-|

(Guitar 1 or 2)
(Another Funky Part)
(listen to the song! It helps)
e|---|---|-----|---|-----|
B|---|---|-----|---|-----|
G|-5-|---|-4/5-|---|-4/5-|
D|-5-|-5-|-4/5-|-5-|-4/5-|
A|-3-|-5-|-2/3-|-5-|-2/3-|
E|---|-3-|-----|-3-|-----|
 (x3) (x6) (x8) (x6) (x8)

(Guitar 2)
(solo thingy)
(i guess?)
e|---------------------------------------------------------|
B|---------------------------------------------------------|
G|---------------------------------------------------------|
D|------9------------9------------------9-10--9-10--9-10---|
A|-7-10---10----8-10---10----7-7/10---------10----10----10-|
E|---------------------------------------------------------|

(Guitar 1)                               
(Solo thingy)
e|-----------------------------------------------|
B|-----------------------------------------------|
G|-------------------5-5-5-5---------------------|
D|-5-5-5-5--7-7-7-7--5-5-5-5---------------------|
A|-5-5-5-5--7-7-7-7--3-3-3-3---------------------|
E|-3-3-3-3--5-5-5-5------------------------------|

(Guitar 1 or 2)
[Outro]
(Distortion)
e|-------------------------------------------------|
B|-------------------------------------------------|
G|-------------------------------------------------|
D|-9-9-9-9-9--7/10--12\----------------------------|
A|-7-7-7-7-7--5/8---10\---7/10--9-9-9---7\5/7\5----|
E|------------------------5/8---7-7-7---5\3/5\3----| (x2)


************************************

| /   Slide up
| \   Slide down
| PM  Palm mute

************************************
Suggest correction
comments
print report bad tab
2 comments total.
0 reply
EmoPikaPunk 10 Jun 05, 2013 04:47 PM

ooh, I like this song ^-^ thanks!

0 reply
Scottorego 10 Oct 29, 2013 04:02 PM

Whenever I see them play this live it looks like the lead guitarist is only using the G string during the "bridge".

guest
Wanna post a correction for this tab? Suggest correction