Oops, an error
Loading. Please wait.

Ride On Shooting Star Tab

version 2
version 2
by Pillows
16,629 views 54 this week
6 commentsread comments
1 2 3 4 5
x 9
add to favorites
×
Save as Personal and add changes to this tab that will be seen only by you. Learn more ›
×
You can save this tab as Personal to edit and correct it or add notes. All changes will be seen only by you. Learn more »
save as personal
new!
launch autoscroll
font size
0
reset
how to read this tab
guitar tuner
Autoscroll
slow
fast
+/-
esc
set tempo
stop
Author
Ride On Shooting Star

The Pillows

Tabbed by Nuggetman (sixstringsamurai_o7@yahoo.com)

From the tv show FLCL (Fury Cury, Fooly Cooly) seen
on Cartoon Network's [adult swim]

Easy song. Awesome song. I included the lyrics, translated from Japanese to English.
They are 100% correct. I triple-checked my translations. Have fun.

Intro, Verses, & End...
E|------------------|-3333--3333|
B|--222/------------|-2222--2222|
G|------------------|-2222--2222|
D|--------3h4^------|-2222--2222|  x8
A|-------0----------|-----------|
E|------------------|-----------|
                     Strum is Down, Up, Down, Down--Down, Up, Down, Down

Chorus 1:
PALM MUTE ALL NOTES

E|---------------------------------------------------------------|
B|---------------------------------------------------------------|
G|---------------------------------------------------------------|
D|------------------44444444-------------------22222222-77777777-| Cont.Below
A|55555555-44444444-22222222-22222222-55555555-00000000-55555555-|
E|33333333-22222222----------00000000-33333333-------------------|

Chorus (Continued):
DON'T PALM MUTE
  C1              C2
E|---------------|-----------------------------------------------|
B|---------------|-----------------------------------------------|
G|---------------|-----------------------------------------------|
D|2-4-2-4-2-4-2-4|---------42-7\--------33-44444444--------------|
A|0-2-0-2-0-2-0-2|55555555-20-5\-222222/11\22222222--------------|
E|---------------|33333333-------000000--------------------------|

When to play:
Intro     x8
Chorus 1  x1
Chorus 2  x2
Intro     x6
Chorus 1  x1
Chorus 2  x4
Intro     x4

Lyrics (in English):

Verse 1:   The sky paints an orange slide.
	   Pride dangles like a sponge.
           Spider
	   The taste of capturing something alive.
	   You don't have to deny it.
	   I want to dream in color.

Chorus 1:  Ride on shooting star.
	   With the voice in my heart
	   I sang out like a shotgun.
	          -solo 1-

Verse 2:   Grungy hamster...acting adult.
	   Revengeful lobster...bring him along.
	   Sniper
	   At the edge of the world, what can you see?
	   Before I aim, I want to touch it.

Chorus 2:  Ride on shooting star.
	   I was looking for you.
	   Through my withdrawl,
	   I was lying.
                 -solo 2-
	   Yeah. Oh yeah.
		 -End-

That's it. If you have any questions, you can e-mail me.
Suggest correction
comments
print report bad tab
6 comments total. Showing first comments.
0 reply
TWP man 30 Jul 01, 2004 08:00 PM

Sorry, messed up the intro. It actually goes:

Intro/Verses: A7
E|------------------|-3333--3333|
B|--333\------------|-2222--2222|
G|------------------|-2222--2222|
D|----------4^------|-2222--2222| x8
A|-------0----------|-----------|
E|------------------|-----------|

Sorry about the mistake!
-TWP man

+1 reply
TWP man 30 Jul 10, 2004 08:00 PM

I have new lyrics...


Ride on Shooting Star in English

Rosy filtered still frame
trace paints the sky
Sunbeams like golden sponge cake
spun in the clouds
Spider -
You should never have to hide
foreboding inside
Premonitions of being trapped alive
I only want bright
and colorful dreams
Ride on shooting star
Just like a shotgun blast -wow!
gave true voice to your heart, now...
Still ringing out in song
Grunge Rock hamster,
so precocious
The vengeful lobster,
fascinated
Sniper -
Whaddya think you'll target
sighting there
Within your narrow world's confines -yah!
I wanna touch it
'fore ya' pull out and shoot!
Ride on shooting star
My forbidden quest for you
amid love's awkward symptoms
I kissed and fibbed to you
Ride on shooting star
Just like a shotgun blast, wow!
gave true voice to your heart, now...
Still ringing out in song

-TWP man

0 reply
punkllama 10 Mar 10, 2005 07:00 PM

good job with this tab, sound correct to me

guest
You may want to rate the tab now too:
select rating
Wanna post a correction for this tab? Suggest correction