Oops, an error
Loading. Please wait.

Ride On Shooting Star tab

version 3
version 3
by Pillows
1,933 views 3 this week
no commentswrite comment
1 2 3 4 5
1 last vote to show rating
add to favorites
×
Save as Personal and add changes to this tab that will be seen only by you. Learn more ›
×
You can save this tab as Personal to edit and correct it or add notes. All changes will be seen only by you. Learn more »
launch autoscroll
font size
0
reset
how to read this tab
guitar tuner
edit
Autoscroll
slow
fast
+/-
esc
set tempo
stop
Author
Ride on Shooting Star- the pillows
This is the Rythmn Guitar part played by Yamanaka (tabbed for a friend)
So it will be different than the main riff you'd expect to hear.

 [Intro 1]
|----------------------|
|----------------------|
|----------------------| repeat 7 times 
|-5-5-5-5-X-5-5-5-5-X--|
|-4-4-4-4-X-4-4-4-4-X--|
|-5-5-5-5-X-5-5-5-5-X--|

|----------------------|
|----------------------|
|----------------------|
|-5-5-5-5—-5-5-5-5-5-5-|
|-4-4-4-4—-4-4-4-4-4-4-|
|-5-5-5-5—-5-5-5-5-5-5-|
[A]
V: Palm muting  STARTS
|-----------------------------------------------------------------|
|-----------------------------------------------------------------|
|-----------------------------------------------------------------|
|---------------------------------4-4-4-4-4-4-4-4-----------------|
|-5-5-5-5-5-5-5-5-4-4-4-4-4-4-4-4-2-2-2-2-2-2-2-2-2-2-2-2-2-2-2-2-|
|-3-3-3-3-3-3-3-3-2-2-2-2-2-2-2-2-----------------0-0-0-0-0-0-0-0-|

_Palm muting ENDS________________________V
|-----------------------------------------------------------------|
|-----------------------------------------------------------------|
|------------------------------------------7-7-7-7----------------|
|---------------------------------7-7-7-7--7-7-7-7--9-9--9--9-----|
|-5-5-5-5-5-5-5-5-7-7-7-7-7-7-7-7-5-5-5-5--5-5-5-5—-9-9--9--9-----|
|-3-3-3-3-3-3-3-3-5-5-5-5-5-5-5-5-------------------7-7--7--7-----|
[Chorus] 
|-----------------------------------------------------------------|
|--------------------7---7-7-7------------------------------------|
|-------------7------7---7-7-7--9-9-9-9-9-9-----------------------|
|-5-5-5-5-5-5-7--9-7-7---7-7-7--9-9-9-9-9-9-8-9-9-9-9-9-9-9-9-----|
|-5-5-5-5-5-5-5--9-7-5---5-5-5--7-7-7-7-7-7-8-9-9-9-9-9-9-9-9-----|
|-3-3-3-3-3-3----7-5------------------------6-7-7-7-7-7-7-7-7-----|

|-----------------------------------------------------------------|
|--------------------7---7-7-7------------------------------------|
|-------------7------7---7-7-7--9-9-9-9-9-9-----------------------|
|-5-5-5-5-5-5-7--9-7-7---7-7-7--9-9-9-9-9-9-8-9-9-9-9-9-9-9-9-----|
|-5-5-5-5-5-5-5--9-7-5---5-5-5--7-7-7-7-7-7-8-9-9-9-9-9-9-9-9-----|
|-3-3-3-3-3-3----7-5------------------------6-7-7-7-7-7-7-7-7-----|
[Intro 2]
|------------------------------------|
|-7-7--7-7-7-7-----------------------|
|-7-7--7-7-7-7-7-7-7-7--7-7-7-7------| repeat 5 times
|-5-5--5-5-5-5-7-7-7-7--7-7-7-7------|
|--------------5-5-5-5--5-5-5-5------|
[B]
|------------------------------------|
|------------------------------------|
|-7-7--7-7-7-7-----------------------|
|-7-7--7-7-7-7-7-7-7-7--7-7-7-7--7-7-|
|-5-5--5-5-5-5-7-7-7-7--7-7-7-7--7-7-|
|--------------5-5-5-5--5-5-5-5--5-5-|


[A] Repeated
V: Palm muting  STARTS
|-----------------------------------------------------------------|
|-----------------------------------------------------------------|
|-----------------------------------------------------------------|
|---------------------------------4-4-4-4-4-4-4-4-----------------|
|-5-5-5-5-5-5-5-5-4-4-4-4-4-4-4-4-2-2-2-2-2-2-2-2-2-2-2-2-2-2-2-2-|
|-3-3-3-3-3-3-3-3-2-2-2-2-2-2-2-2-----------------0-0-0-0-0-0-0-0-|

_Palm muting ENDS________________________V
|-----------------------------------------------------------------|
|-----------------------------------------------------------------|
|------------------------------------------7-7-7-7----------------|
|---------------------------------7-7-7-7--7-7-7-7--9-9--9--9-----|
|-5-5-5-5-5-5-5-5-7-7-7-7-7-7-7-7-5-5-5-5--5-5-5-5—-9-9--9--9-----|
|-3-3-3-3-3-3-3-3-5-5-5-5-5-5-5-5-------------------7-7--7--7-----|
[Chorus]
|-----------------------------------------------------------------|
|--------------------7---7-7-7------------------------------------|
|-------------7------7---7-7-7--9-9-9-9-9-9-----------------------|
|-5-5-5-5-5-5-7--9-7-7---7-7-7--9-9-9-9-9-9-8-9-9-9-9-9-9-9-9-----|
|-5-5-5-5-5-5-5--9-7-5---5-5-5--7-7-7-7-7-7-8-9-9-9-9-9-9-9-9-----|
|-3-3-3-3-3-3----7-5------------------------6-7-7-7-7-7-7-7-7-----|

|-----------------------------------------------------------------|
|--------------------7---7-7-7------------------------------------|
|-------------7------7---7-7-7--9-9-9-9-9-9-----------------------|
|-5-5-5-5-5-5-7--9-7-7---7-7-7--9-9-9-9-9-9-8-9-9-9-9-9-9-9-9-----|
|-5-5-5-5-5-5-5--9-7-5---5-5-5--7-7-7-7-7-7-8-9-9-9-9-9-9-9-9-----|
|-3-3-3-3-3-3----7-5------------------------6-7-7-7-7-7-7-7-7-----|
[BE-BEEP,BE-BEEP,yeah]
|-----------------------------------------------------------------|
|-----------------------------------------------------------------|
|---------------7-------------------------------------------------|
|-10-10--10-10--7-------------------------------------------------|
|-10-10--10-10--5-------------------------------------------------|
|--8--8---8--8----------------------------------------------------|

[outro]
|------------------------------------|
|------------------------------------|
|-7-7--7-7-7-7-----------------------|
|-7-7--7-7-7-7-7-7-7-7--7-7-7-7------|
|-5-5--5-5-5-5-7-7-7-7--7-7-7-7------|
|--------------5-5-5-5--5-5-5-5------|

|------------------------------------|
|------------------------------------|
|-7-7--7-7-7-7-----------------------|
|-7-7--7-7-7-7-7-7-7-7--7-7-7-7------|
|-5-5--5-5-5-5-7-7-7-7--7-7-7-7------|
|--------------5-5-5-5--5-5-5-5------|

|-----------------------------------------------------------------|
|-----------------------------------------------------------------|
|-7-7--7-7-7-7----------------------------------------------------|
|-7-7--7-7-7-7-7-7-7-7--7-7-7-7----7-7-7--------------------------|
|-5-5--5-5-5-5-7-7-7-7--7-7-7-7----------4-4/5--------------------|
|--------------5-5-5-5--5-5-5-5-----------------------------------|

If there are any major mistakes, message me about it at rickenbackerazn@yahoo.com
Suggest correction
Creating personal tab
Creating personal tab
You can edit any tab online and save it as your Personal.

You can edit, replace or remove any tab part or add personal notes – all changes will be seen only by you.

Personal tabs can be accessed anytime from any device, even offline.
Learn more »
Give kudos to tab author, rate the tab!
1 2 3 4 5
comments
print report bad tab
guest
You may want to rate the tab now too:
select rating
Wanna post a correction for this tab? Suggest correction