Oops, an error
Loading. Please wait.

Ride On Shooting Star tab

version 7
version 7
by Pillows
1,138 views 18 this week
no commentswrite comment
1 2 3 4 5
3 more votes to show rating
add to favorites
×
Save as Personal and add changes to this tab that will be seen only by you. Learn more ›
×
You can save this tab as Personal to edit and correct it or add notes. All changes will be seen only by you. Learn more »
launch autoscroll
font size
0
reset
how to read this tab
guitar tuner
edit
Autoscroll
slow
fast
+/-
esc
set tempo
stop
Author
-------------------------------------------------------------------------------
     Ride on Shooting Star - The Pillows
-------------------------------------------------------------------------------
Tabbed by:bluesjr
E-mail:
This is my first attempt at tabbing a song and using this site. I know there is more to
this song but this is all I had time to do. This is the gist of the song. This is a
catchy Song featured at the end of FLCL. I am a guitar player of many years I am also an 
anime fan and artist so I will be adding more tabs later if I get time. Again this is 
the way
I hear the song and this is my interpretation I know other people may play it different. Enjoy

Tuning:standard with slight distortion for tone

Intro and also the played during song Verses tremolo pick 1st 3 notes
e|----------------8-8--8-8-8-------------------------------------------------|
B|----------------8-8--8-8-8-------------------------------------------------|
G|-7-7-7----------6-6--6-6-6-------------------------------------------------|
D|----------------7-7--7-7-7-------------------------------------------------|
A|--------0\9----------------------------------------------------------------|
E|---------------------------------------------------------------------------|


bridge leading to main chorus palm mutexxxxxxxxxxxxxxxxxxxxxxxxxxxxxxxxxxxxx
e|-------------------------------------------------------------------->
B|-------------------------------------------------------------------->
G|-------------------------------------------------------------------->continued below
D|-----------------------------------4-4-4-4-4-4-4-4-2-2-2-2-2-2-2-2-->
A|-2-2-2-2-2-2-2-2-4-4-4-4-4-4-4-4-4-2-2-2-2-2-2-2-2-2-2-2-2-2-2-2-2-->
E|-3-3-3-3-3-3-3-3-2-2-2-2-2-2-2-2-2-----------------0-0-0-0-0-0-0-0-->

palm mutexxxxxxxxxxxxxxxxxxxxxEND<
e|---------------------------------------------------------------------------|
B|---------------------------------------------------------------------------|
G|------------------------------------------------4-4-4----------------------|
D|---------------------------------4-4-4-3-4-3-4--4-4-4-2-4-2-4--------------|
A|-2-2-2-2-2-2-2-2\4-4-4-4-4-4-4-4-5-5-5-4-5-4-5--2-2-2-0-2-0-2--------------|
E|-3-3-3-3-3-3-3-3\5-5-5-5-5-5-5-5-------------------------------------------|

Main chorus        let ring
e|-----------------3---------------------------------------------------------|
B|---------------2-2---------------------------------------------------------|
G|-------------4-2-3----------------------3\4--------------------------------|
D|-------------4-2----------2-2-2-2-2-2-2-3\4-2------------------------------|
A|-2-2-2-2-2-2-2-0----------2-2-2-2-2-2-2-1\2-2------------------------------|
E|-3-3-3-3-3-3--------------0-0-0-0-0-0-0-----0------------------------------|



************************************

| /   slide up
| \   slide down
| h   hammer-on
| p   pull-off
| ~   vibrato
| +   harmonic
| x   Mute note
| b   Bend
| pb  Pre-bend
| br  Bend release
| pbr Pre-bend release
| brb Bend release bend

************************************
Suggest correction
Creating personal tab
Creating personal tab
You can edit any tab online and save it as your Personal.

You can edit, replace or remove any tab part or add personal notes – all changes will be seen only by you.

Personal tabs can be accessed anytime from any device, even offline.
Learn more »
Give kudos to tab author, rate the tab!
1 2 3 4 5
comments
print report bad tab
guest
You may want to rate the tab now too:
select rating
Wanna post a correction for this tab? Suggest correction