Oops, an error
Loading. Please wait.

Sad Sad Kiddie Bass Tab

13 views 6 this week
no commentswrite comment
1 2 3 4 5
3 more votes to show rating
add to favorites
launch autoscroll
font size
0
reset
guitar tuner
Autoscroll
slow
fast
+/-
esc
set tempo
stop
Help us to improve Ultimate-Guitar.com Take our survey!
×
Author
Difficulty
novice
Notes in brackets are the downbeat, mind those when playing the reprise:
play the note in the beginning (0) when you play the passage for the first time,
otherwise play the note at the end (2).
Have fun!

[Intro]
G|--------------------------------------------------------|
D|--------------------------------------------------------|
A|--------------------------------------------------------| x4
E|-(0)-3-3/10\3-0-3-3/10\3-0-3-3/10\3-0-4-4-4-4-2-2-2-(2)-|

[Verse]
G|-----------------------------------------------------------------------------------------|
D|-----------------------------------------------------------------------------------------|
A|-----------------------------------------------------------------------------------------| x2
E|-0-3-3/10\3-0-3-3/10\3-0-3-3/10\3-0-3-3/10\3-0-3-3/10\3-0-4-4-4-4-4-4-4-4-2-2-2-2-2-2-2-2|

[Chorus]
G|---------------------------------|
D|-0-0-0-0-0-0-0-0-----------------|
A|-----------------3-3-3-3-3-3-3-3-| x3
E|---------------------------------|

G|-----------------|
D|-----------------|
A|-1-1-1-1-1-1-1-1-| x1
E|-----------------|

[Intro]
G|--------------------------------------------------------|
D|--------------------------------------------------------|
A|--------------------------------------------------------| x2
E|-(0)-3-3/10\3-0-3-3/10\3-0-3-3/10\3-0-4-4-4-4-2-2-2-(2)-|

[Verse]
G|-----------------------------------------------------------------------------------------|
D|-----------------------------------------------------------------------------------------|
A|-----------------------------------------------------------------------------------------| x2
E|-0-3-3/10\3-0-3-3/10\3-0-3-3/10\3-0-3-3/10\3-0-3-3/10\3-0-4-4-4-4-4-4-4-4-2-2-2-2-2-2-2-2|

[Chorus]
G|---------------------------------|
D|-0-0-0-0-0-0-0-0-----------------|
A|-----------------3-3-3-3-3-3-3-3-|
E|---------------------------------|

[Intro]
G|--------------------------------------------------------|
D|--------------------------------------------------------|
A|--------------------------------------------------------| x3
E|-(0)-3-3/10\3-0-3-3/10\3-0-3-3/10\3-0-4-4-4-4-2-2-2-(2)-|

G|------------------------------------|
D|------------------------------------|
A|------------------------------------|
E|-0-3-3/10\3-0-3-3/10\3-0-3-3/10\3-0-|

[Chorus]

G|-----------------|
D|-0----0----0-----|
A|-----------------|
E|-----------------|

[Outro]
G|-------------------------------------------------------------------------------------------|
D|-------------------------------------------------------------------------------------------|
A|-------------------------------------------------------------------------------------------|
E|-0-3-3/10\3-0-3-3/10\3-0-3-3/10\3-0-3-3/10\3-0-3-3/10\3-0-4-4-4-4-4-4-4-4-2-2-2-2-2-2-2-2-3|



************************************

| (n)  Ghost note
| /    Slide up
| \    Slide down

************************************
Suggest correction
Give kudos to tab author, rate the tab!
1 2 3 4 5
comments
print report bad tab
guest
You may want to rate the tab now too:
select rating
Wanna post a correction for this tab? Suggest correction