Oops, an error
Loading. Please wait.

Magic intro tab

version 2
version 2

Whole song

Interactive

by Pilot
4,910 views 3 this week
2 commentsread comments
1 2 3 4 5
x 3
add to favorites
×
Save as Personal and add changes to this tab that will be seen only by you. Learn more ›
×
You can save this tab as Personal to edit and correct it or add notes. All changes will be seen only by you. Learn more »
launch autoscroll
font size
0
reset
how to read this tab
guitar tuner
edit
Autoscroll
slow
fast
+/-
esc
set tempo
stop
Author
Ive listened to the song a lot of times and this is perfect.
It's not too hard to play once you have got the hand of it.

E|---------------7--7--7-----------------7--|
B|-------8----------------10-8----8--10----8|
G|-7-h9----9-7------------------9-----------|
D|------------------------------------------|
A|------------------------------------------|
E|------------------------------------------|

E|-12--12---10-------------12-10------------|
B|------------12--8--8---8-------12-12-12-12|
G|------------------------------------------|
D|------------------------------------------|
A|------------------------------------------|
E|------------------------------------------|

E|-10-10-12-10----10------------------------|
B|-------------12----12---------------------|
G|-----------------------10---10-10-10------|
D|------------------------------------------|
A|------------------------------------------|
E|------------------------------------------|

oh, ho ho it's magic, you know...


I am trying to work out the solo later on in the song...
i should have that done soon.

            
            
Suggest correction
Creating personal tab
Creating personal tab
You can edit any tab online and save it as your Personal.

You can edit, replace or remove any tab part or add personal notes – all changes will be seen only by you.

Personal tabs can be accessed anytime from any device, even offline.
Learn more »
Give kudos to tab author, rate the tab!
1 2 3 4 5
comments
print report bad tab
2 comments total.
0 reply
Trezticle 40 Jul 27, 2007 07:15 PM

this is completely wrong.... the bit youve tabbed isnt even right - it may sound harsh but i expected the 5 star rating it had, did you do that yourself?

0 reply
Krzy_Guitar_Kid 10 Aug 21, 2007 07:19 PM

its not horrible. but it needs some fixing up.

guest
You may want to rate the tab now too:
select rating
Wanna post a correction for this tab? Suggest correction