Oops, an error
Loading. Please wait.

Alright Tab

37,328 views 15 this week
5 commentsread comments
1 2 3 4 5
x 14
add to favorites
launch autoscroll
font size
0
reset
how to read this tab
guitar tuner
Autoscroll
slow
fast
+/-
esc
set tempo
stop
Help us to improve Ultimate-Guitar.com Take our survey!
×
Author
Difficulty
novice
Pilot Speed - Alright

= Chords =

   F    Dm    Am     C  
|--1--|--1--|--0--|--0--|
|--1--|--3--|--1--|--1--|
|--2--|--2--|--2--|--0--|
|--3--|--0--|--2--|--2--|
|--3--|--x--|--0--|--3--|
|--1--|--x--|--0--|--0--|


[Intro] F - Dm - Am - C (the whole song through)

= Piano =

e|-----0-------|-0-1-0---0----|
H|-------1-----|-------3------|
G|-0-2---------|--------------|
D|-------------|--------------|
A|-------------|--------------|
E|-------------|--------------|

[Verse 1] F - Dm - Am - C

And tonight I lack the strength to even move
When you walked, now watch me die
For I know this is harder for you
For love has let you down

e|----------------|--------------|----------------|-------------|
H|--------------1-|--------------|----------------|-------------|
G|---0-2b3r2~~~---|-2~~----------|---0-2b3r2~~~---|-0-----------|
D|-3--------------|--------------|----------------|-------------|
A|----------------|--------------|----------------|-------------|
E|----------------|--------------|----------------|-------------|

And the road ahead is lined with broken dreams
So walk, you walk on by
And I failed to give you everything you need
For the fears behind your eyes

[Chorus]

e|-8-8-8-8-8-8-8-8-|-5-5-5-5-6-6-6-6-|-8-8-8-8-8-8-8-8-|---------6-6-6-6-|
H|-----------------|-----------------|-----------------|-8-8-8-8---------|
G|-----------------|-----------------|-----------------|-----------------|
D|-----------------|-----------------|-----------------|-----------------|
A|-----------------|-----------------|-----------------|-----------------|
E|-----------------|-----------------|-----------------|-----------------|

When I can't feel you, I'm not alright
Not alright, not alright
When I can't heal you, I'm not alright
I'm not alright, I'm not alright

When I can't feel you
I'm not... 
Alright

[Verse 2]

Jesus, as you throw me on the rocks
For love I left your side
'Cause I believed in love and beauty's wiles
Where heaven shone from her eyes

[Indistinct]

Chained to your train
I'm wanting you to say
I'm wanting you to say
I wanted to believe
Chained to your train
I'm wanting you to say
I'm wanting you to say

[Solo]

e|----------------|----------------|----------------|-----------------|
H|----------------|----------------|----------------|-5-5-5-5-5-5-5-5-|
G|-5------5-5-5-7-|--------5-5-5-7-|--------5-5-5-7-|-----------------|
D|----------------|-7--------------|-7--------------|-----------------|
A|----------------|----------------|----------------|-----------------|
E|----------------|----------------|----------------|-----------------|

[Verse 3]

Tell me that it wasn’t all for naught,
It's such a waste now
It's such a waste now, come on
Cause I know you're scared
But baby don't you hide
It's such a waste
You'll stand alone now
You'll make it somehow


============================================

 ~ Vibrato
 b Bend
 r Release

Tabbed by Darek Kay (darekkay@freenet.de)
Suggest correction
comments
print report bad tab
5 comments total. Showing first comments.
0 reply
spike0 41 Apr 09, 2008 10:44 AM

thx very much!

+2 reply
gmr5953uk 10 Aug 06, 2008 10:07 AM

its awesome dude.. im pretty sure theres a part that goes
e|----------------|---------1p0--|---0------------|
H|--------------1-|-------------1|-----1----------|
G|---0-2b3r2~~~---|-2~~----------|-2-----2-----0--|
D|-3--------------|--------------|---------------2|
A|----------------|--------------|----------------|
E|----------------|--------------|----------------|

0 reply
porchie 51 Mar 31, 2009 09:09 PM

pretty awesome. the copy of the song that i have doesn't have any lyrics about chains or anything though...

guest
You may want to rate the tab now too:
select rating
Wanna post a correction for this tab? Suggest correction