Oops, an error
Loading. Please wait.

Put The Phone Down Tab

848 views 1 this week
1 commentread comment
1 2 3 4 5
please rate
add to favorites
launch autoscroll
font size
0
reset
how to read this tab
guitar tuner
Autoscroll
slow
fast
+/-
esc
set tempo
stop
Help us to improve Ultimate-Guitar.com Take our survey!
×
-------------------------------------------------------------------------------
                             "Put the Phone Down" - Pilot Speed
-------------------------------------------------------------------------------
Tabbed by:Yours Truly
Email:

Tuning:Standard

e|--------------------------------------------------------------------------|
B|--------------------------------------------------------------------------|
G|--------------------------------------------------------------------------|
D|--------------------------------------------------------------------------|
A|-----------------------------------6--------------------------------------|
E|---6----10----------8-----10-----------6----------------------------------|

haven't figured out chords but this seems to work for now


e|------------------------------------------------------------------------------|
B|------------------------------------------------------------------------------|
G|-----------8------------------------------------------------------------------|
D|--8--------8------------------------------------------------------------------|
A|--8--------6------------------------------------------------------------------|
E|--6---------------------------------------------------------------------------|
Suggest correction
Give kudos to tab author, rate the tab!
1 2 3 4 5
comments
print report bad tab
1 comment total.
0 reply
ammma 10 wrote on October 7 2014, 11:25 am, edited at 11:26 am

Intro is

A|----5--3--5--6---|
E--6--------------6-|

guest
You may want to rate the tab now too:
select rating
Wanna post a correction for this tab? Suggest correction