Oops, an error
Loading. Please wait.

Penelope bass

version 1
version 1

Whole song

by Pinback
6,679 views 3 this week
3 commentsread comments
1 2 3 4 5
x 3
add to favorites
×
Save as Personal and add changes to this tab that will be seen only by you. Learn more ›
×
You can save this tab as Personal to edit and correct it or add notes. All changes will be seen only by you. Learn more »
launch autoscroll
font size
0
reset
guitar tuner
edit
Autoscroll
slow
fast
+/-
esc
set tempo
stop
Author
------------------------------------------
	 "Penelope" - Pinback

http://lyrics.duble.com/P/pinbacklyrics/pinbackpenelopelyrics.htm
------------------------------------------

Tabbed By : Justin RiRaY
e-mail: Pakman7JR@hotmail.com

Tuning: drop C  ( CADG )

Riff 1

G|-----------------------------7--------|
D|-------------------------7/9---9------|
A|--------------------------------------|
C|---4------2----7----0-----------------|


Riff 2

G|--------------------------------------|
D|--------------------------------------|
A|--------------------------------------|
C|--4444444444444444--2222222222222222--|

G|--------------------------------------|
D|--------------------------------------|
A|--------------------------------------|
C|--5/77777777777777--0000000000000000--|


| /  slide up
========================================

            
            
Suggest correction
Creating personal tab
Creating personal tab
You can edit any tab online and save it as your Personal.

You can edit, replace or remove any tab part or add personal notes – all changes will be seen only by you.

Personal tabs can be accessed anytime from any device, even offline.
Learn more »
Give kudos to tab author, rate the tab!
1 2 3 4 5
comments
print report bad tab
3 comments total.
0 reply
KDC_Jebus_KDC 31 Aug 06, 2007 10:53 PM

No way dude. It just doesn't have the right amount of notes and doesn't sound right.

0 reply
KDC_Jebus_KDC 31 Sep 20, 2007 02:18 PM

Try this one,
----------------------7---
9-----------------7-9---9-
--7-5/10------------------
----------8-8-88----------
You could slide from the 7 to the 9, and you could just go to the 3 on the A instead of 8 on the E for more a little more "zazz"
Figure the timing out and you should be fine.

0 reply
piequat 803 Nov 08, 2007 02:05 AM

this is not correct at all.

the notes are completely wrong.

guest
You may want to rate the tab now too:
select rating
Wanna post a correction for this tab? Suggest correction