Oops, an error
Loading. Please wait.

Penelope tab

version 1
version 1

Whole song

by Pinback
29,404 views 30 this week
8 commentsread comments
1 2 3 4 5
x 7
add to favorites
×
Save as Personal and add changes to this tab that will be seen only by you. Learn more ›
×
You can save this tab as Personal to edit and correct it or add notes. All changes will be seen only by you. Learn more »
launch autoscroll
font size
0
reset
how to read this tab
guitar tuner
edit
Autoscroll
slow
fast
+/-
esc
set tempo
stop
Intro/Verse

e|------------0-------------------------------|
B|--------3-------3----------------3---0---3--|
G|----------0---0---0--x3------------0---0----|
D|--2p0h2-------------------2p0h2-------------|
A|--------------------------------------------|
E|--------------------------------------------|

e|----------------------------------|
B|----------------------------------|
G|--4-4-4-4-4-4-4-4-5-5-4-4---0-----|
D|--------------------------4---4---|
A|--------------------------------5-|
E|----------------------------------|

e|------------------------------------------|
B|------------------------------------------|
G|------0 0-----0 0-----------0-------0-----| repeat last part a couple times
D|--0 0-----0 0-----0 0 0 0-4---4---4---4---|
A|--------------------------------5-------5-|
E|------------------------------------------|

That's the whole song!

| /  slide up
|   slide down
| h  hammer-on
| p  pull-off
| ~  vibrato
| +  harmonic
| x  Mute note
Suggest correction
Creating personal tab
Creating personal tab
You can edit any tab online and save it as your Personal.

You can edit, replace or remove any tab part or add personal notes – all changes will be seen only by you.

Personal tabs can be accessed anytime from any device, even offline.
Learn more »
comments
print report bad tab
8 comments total. Showing first comments.
0 reply
ionlylookscary 30 Apr 21, 2006 06:04 PM

just me slowly playing through it, it sounds pretty good, its awesome song and a pretty good tab

0 reply
benay148 10 Jan 04, 2007 04:14 PM

This tab is awesome, i always wanted to know how to play this song, you are the man!

0 reply
Mert 71 Jan 16, 2007 04:14 AM

i may be wrong, but during the intro i play this

e|------------0-------------------------------|
B|--------3-------3----------------3---0---3--|
G|------0---0---0---0--x3--------0---0---0----|
D|----2------------------------2--------------|
A|--3------------------------3----------------|
E|--------------------------------------------|

this is to the fast upbeat version i heard on mark hoppus's podcast. its awesome

guest
You may want to rate the tab now too:
select rating
Wanna post a correction for this tab? Suggest correction