Oops, an error
Loading. Please wait.

Proceed To Memory Bass

1,355 views 3 this week
no commentswrite comment
1 2 3 4 5
2 more votes to show rating
add to favorites
launch autoscroll
font size
0
reset
guitar tuner
×
Best way to learn
"Proceed To Memory"
Autoscroll
slow
fast
+/-
esc
set tempo
stop
Author
Difficulty
  follow
intermediate
This is my take on the main intro/verse riff of the song on bass. Great track off a 
fantastic album. Go buy Information Retrieved! I may have missed a note or two; constructive 
criticism is encouraged.


g|-----12-----14-----11-----12-----11------12------11-------|
D|------0------0------0------0------0-------0-------0-------|
A|----------------------------------------------------------|
E|--10-----10-----10-----10-----10-----10------10-----------|




g|-----7-----7-----7-----7-----7-----7------7------7--------|
D|-----7-----7-----7-----7-----9-----9------9------9--------|
A|--0-----0-----0-----0-----0-----0-----10-----10-----------|
E|----------------------------------------------------------|
Suggest correction
Give kudos to tab author, rate the tab!
1 2 3 4 5
comments
print report bad tab
guest
You may want to rate the tab now too:
select rating
Wanna post a correction for this tab? Suggest correction