Oops, an error
Loading. Please wait.

Cadmium tab

version 1
version 1

Whole song

8,974 views 63 this week
1 commentread comment
1 2 3 4 5
x 8
add to favorites
×
Save as Personal and add changes to this tab that will be seen only by you. Learn more ›
×
You can save this tab as Personal to edit and correct it or add notes. All changes will be seen only by you. Learn more »
launch autoscroll
font size
0
reset
how to read this tab
guitar tuner
edit
Autoscroll
slow
fast
+/-
esc
set tempo
stop
Author
Difficulty
-------------------------------------------------------------------------------
                             Cadmium - Pinegrove
-------------------------------------------------------------------------------

Tuning: Standard

   Riff 1:
e|---------------------------------------------------------------------------|
B|-------9-------------------------------------------------------------------|
G|-----------8---9-----------------------------------------------------------|
D|--11-----------------------------------------------------------------------|
A|---------------------------------------------------------------------------|
E|---------------------------------------------------------------------------|

   Riff 2:
e|---------------------------------------------------------------------------|
B|---------------------------------------------------------------------------|
G|---------------------------------------------------------------------------|
D|---------------------------------------------------------------------------|
A|----------4---2------------------------------------------------------------|
E|--5---4---2---0------------------------------------------------------------|

     A   E    B
e|------------2--------------------------------------------------------------|
B|------------4--------------------------------------------------------------|
G|---6---1----4--------------------------------------------------------------|
D|---7---2----4--------------------------------------------------------------|
A|---4---2----2--------------------------------------------------------------|
E|---5--------2--------------------------------------------------------------|

Play riff 1 once over each line

Was walking with my neck out
In some ways I wish I was
Was walking with my neck out
In some ways that I wish that I was
Out on the bevel sound
It sounds like everything else
You'll know it when you hear it
Cause you know the way that my voice falls
Ignore my tone and everything
I sing I sing for me
Ignore the phone on the bed
It rings it rings it rings
Shirt collar wringing me out
My collarbone got all red
Already severing prose
I wrote I sing instead
I hold you put your neck out
Tell me the ways you wish you were
Keep your confident sound
You'll hook mine I'll spur
So when I want to hang out
I hung behind your eyes
My eyes still flicker with doubt
Quickly no I can't decide
I'm tapped out
Don't it always seem to go there
You could hold it right in your hands
Collapse and still not know
In your hands
Collapse and still not know

Riff 1 2x

Riff 2 4x

Play riff 2 over each line

Say what it is
Say how it is with everybody I know
I got no temp for that
I send you this
Cadmium red plumb
Every layer I shed
And I shed one layer for this

A
Say what it is
          E    B
It's so impossible
A
But if I just say what it is
            E         B  A
It tends to solve and go away

When I was looking
   E    B
My life away

Riff 2 4x

Play riff 2 over each line

More every year
I shine light on answers I try to unveil
We both gotta do better than that
Some sorting out
I'll be sitting on the outskirts if you
Wanna talk about things in there are getting so loud

A
Say what it is
          E    B
It's so impossible
A
But if I just say what it is
            E         B  A
It tends to solve and go away

When I was looking
   E    B
My life away

            
            
Suggest correction
Creating personal tab
Creating personal tab
You can edit any tab online and save it as your Personal.

You can edit, replace or remove any tab part or add personal notes – all changes will be seen only by you.

Personal tabs can be accessed anytime from any device, even offline.
Learn more »
comments
print report bad tab
1 comment total.
0 reply
tempeh3000 10 Jul 23, 2016 11:55 AM

the tab is inaccurate and incomplete. see version two for a more fleshed out tabby of the song :) good attempt though

guest
You may want to rate the tab now too:
select rating
Wanna post a correction for this tab? Suggest correction