Oops, an error
Loading. Please wait.

Cadmium tab

version 2
version 2

Whole song

12,295 views 261 this week
4 commentsread comments
1 2 3 4 5
x 13
add to favorites
×
Save as Personal and add changes to this tab that will be seen only by you. Learn more ›
×
You can save this tab as Personal to edit and correct it or add notes. All changes will be seen only by you. Learn more »
launch autoscroll
font size
0
reset
how to read this tab
guitar tuner
edit
Autoscroll
slow
fast
+/-
esc
set tempo
stop
It goes something like this. I tabbed it out from the audiotreelive performance:
https://www.youtube.com/watch?v=_m9seMcVW34

This is only the lead singers guitar, the rhythm guitar i guess. If you wanna play the 
lead you can just solo
some stuff over the chords :) You have to figure out the strumming yourself since i cba doing it :(


[Intro/verse]

e|---------------------------------------------------------------|
b|----9----------------------------------------------------------|
G|-6-----8---9--------------------------  <- repeat till 1:51----|
D|----9----------------------------------------------------------|
A|-7-----9--11---------------------------------------------------|
E|---------------------------------------------------------------|


[Verse 2] From 1:51

e|-------------------------------------------------------------------------|
b|-------------------------------------------------------------------------|
G|-------------------------------------------------------------------------|
D|-------------------------------------------------------------------------|
A|-7--2--4--2--------------------------- <- palm mute, repeat till 2:26----|
E|-5--4--2--0--------------------------------------------------------------|


[Pre Chorus] From 2:26

e|-----------------------------------------------------------------|
b|-----------------------------------------------------------------|
G|-6---------------------------------------------------------------|
D|-7------------------------------------ <- Palm mute till 2:37----|
A|-7---------------------------------------------------------------|
E|-5---------------------------------------------------------------|


[Chorus/outro] from 2:37

e|----------------5--5--5--5-----------------|
b|----------------5--5--5--5-----------------|
G|----------8--7--6--6--6--6-----------8--8--|
D|-9--9--9--9--7--7--7--7--7--9--9--9--9--9--| <- figure out the strumming and timing yourself.
A|-7--7--9--9--7--7--7--7--7--9--9--9--9--9--|
E|----------7--7--5--5--5--5-----------7--7--|



 
Suggest correction
Creating personal tab
Creating personal tab
You can edit any tab online and save it as your Personal.

You can edit, replace or remove any tab part or add personal notes – all changes will be seen only by you.

Personal tabs can be accessed anytime from any device, even offline.
Learn more »
comments
print report bad tab
4 comments total. Showing first comments.
0 reply
Mean Mr Mustard 5,604 Aug 11, 2016 02:59 PM

Pretty good but the A and B chords are supposed to be major, not minor

0 reply
camyams 10 Jun 20, 2017 12:06 AM

Fantastic tab. I just think it's funny that the intro to this song is the same chord progression as the chorus of Stacy's Mom!

0 reply
rdlung 84 Aug 04, 2017 04:49 PM

Anyone know how to play the lead riff. Can't seem to figure it out

guest
You may want to rate the tab now too:
select rating
Wanna post a correction for this tab? Suggest correction