Oops, an error
Loading. Please wait.

Portal Tab

106 views 9 this week
no commentswrite comment
1 2 3 4 5
1 last vote to show rating
add to favorites
launch autoscroll
font size
0
reset
how to read this tab
guitar tuner
Autoscroll
slow
fast
+/-
esc
set tempo
stop
Help us to improve Ultimate-Guitar.com Take our survey!
×
Author
This is the structure of the newest pinegrove song portal. It's from a live interview session that can be
found here: https://www.youtube.com/watch?v=7FbQUTWJJP0
[Part 1/verse]
e|--------2--4-----------------------------------------------------------------|
B|--------2--5-----------------------------------------------------------------|
G|--4--4--3--6-----------------------------------------------------------------|
D|--4--4--4--6-----------------------------------------------------------------|
A|--2--2--4--4-----------------------------------------------------------------|
E|--4-----2--4-----------------------------------------------------------------|

This section above is what starts the song and plays 2 times.

Then...

[Part 2/chorus/outro]
e|---------------(4)------------------------------------------------------------|
B|---------------(5)------------------------------------------------------------|
G|---4--4--4-----(6)------------------------------------------------------------|
D|---4--4--4-----(6)------------------------------------------------------------|
A|---2--2--2-----(4)------------------------------------------------------------|
E|---4--2--0-----(4)------------------------------------------------------------|

This section comes in just before the transition in lyrics to: "Isn't it lovely" and plays twice
The chord in () is the transition chord in this song.
Evan plays this () chord quickly between each repetition of part 1, part 2 or the transition between
Suggest correction
Give kudos to tab author, rate the tab!
1 2 3 4 5
comments
print report bad tab
guest
You may want to rate the tab now too:
select rating
Wanna post a correction for this tab? Suggest correction